Cifras para Violão e Guitarra » P »Panda » Disculpa los malos pensamientos (Tab)

Disculpa los malos pensamientos
Panda

Letras, cifras e tablaturas para violão, guitarra, piano, ukulele e baixo

  • A F#m D E
    A F#m D E
    
    A
    Estas manos de rojo están manchadas
    F#m                            D
    por todas las veces que yo en mis sueños
                              E
    Te he asesinado con tanta pasión
    A
    Enjuagaremos aquellas veces
          F#m
    Que dijiste que me amabas
                D
    Un poco de veneno y aguarrás
    E
    Sumérgete un poco más
              A
    Porque tú muerta ya estás
             F#m
    
  • (A# Gm D# F)
    
    
    A#
    Estas manos, de rojo estan manchadas
    Gm                                D#
    por todas las veces que yo en mi sueños
                                 F
    te he asesinado con tanta pasion.
    
    
       A#                              Gm
    Enjuagaremos, aquellas veces que dijiste
                                D#
    que me amabas un poco de veneno y aguarras
        F
    sumergete un poco mas.
    
    
           A#
    
  • Hey k onda ps aki mi segunda transcripción y ps es de esta chingona rola
    de panda
    Espero q les sirva y ps si no siéntanse con la libertad  de mentarme la
    madre.
    Un saludo para todos mis homies del cobaev de nogales q malo que ya nos
    vamos a separar chales.
    
    aki un video d mi tkndola con esta tab
    http://mx.youtube.com/watch?v=vUHU9Gq1C-o
    
    Intro
    
      1|------------------------------------|
      2|------------------------------------|
      3|-4----------------------------------|
      4|-4----------------------------------|
      5|-2----------------------------------|
      6|------------------------------------|
       |                                    |
      1|------------------------------------|
      2|-12-12-12-11-12-16-16-16-14-16-14-12|
      3|------------------------------------|
      4|-9--9--9--8--9--13-13-13-11-13-11-9-|
      5|------------------------------------|
      6|------------------------------------|
    
    
    
      1|------------------------------------|
      2|------------------------------------|
      3|--------------
  • Esta pinch rola esta p.k.m, y esta bien pinche sencilla,
    solo midan bien los jodidos tiempos.
    
    Aprovecho para mandar saludos al pinche rey lagartijo,
    al gato y a Ulises del D, tmb para el pinche Sergio G,
    tmb para Panchito del I, y para el Nestor de 6° semestre,
    y esta rola va dedicada a mi ex Yessi G. V.
    
    - Para empezar, afina tu pinch lira en bemol,
      es decir medio tono abajo.
    
      si esta afinada asi:
      1E|--|
      2B|--|
      3G|--|
      4D|--|
      5A|--|
      6E|--|
    
      Pues afinala asi:
      1D#|--------|
      2A#|--------|
      3F#|--------|
      4C#|--------|
      5G#|--------|
      6D#|--------|
    
    Lira 2 (Pepe)
    Lira 1 (Arturo)
    
    - Bataka.
    
    - Lira 2 (esto tmb va en los coros)
    1|----|                          1|----|
    2|----|                          2|----|
    3|-4--| hasta los 5 seg cambia a 3|----|
    4|-4--|                          4|-6--|
    5|-2--|                          5|-6--|
    6|----|                          6|-4--|
    
    1|----|                        1|----|
    2|----|                        2|----|
    3|----| 4 seg des
  • Intro/Verso
    G|---------------------------------------------------
    D|---------------------------------------------------
    A|-111111111111--------------------------------------
    D|-------------555555555555-111111111111-333333333333- x2
    
    Precoro
    G|------------------------------------------------------
    D|------------------------------------------------------
    A|-111111111111-----------------------------------------
    D|-------------555555555555-111111111111-33333333-3-3-3-
    
    Coro
    G|---------------------------------------------------
    D|---------------------------------------------------
    A|-111111111111--------------------------------------
    D|-------------555555555555-111111111111-333333333333
    
    (aqui entra la bateria con la guitarra
    y el bajo entra luego asi..)
    G|---------------------------
    D|-1111111111111111111111111-
    A|---------------------------
    D|---------------------------
    
    G|---3/5----3/5---3/5---3/5---3/5---3/5----3/5-
    D|-33----33----33----33----33----33----33----
  • +
    ¡Colabora con nosotros!
    Envíanos tu versión de esta canción

Letra de Disculpa los malos pensamientos
Estas manos de rojo están manchadas
por todas las veces que yo en mis sueños
Te he asesinado con tanta pasión
Enjuagaremos aquellas veces
Que dijiste que me amabas
Un poco de veneno y aguarrás
Sumérgete un poco más
Porque tú muerta ya estás
Muerta estarás
Puedes estar tranquila
Pues solo en sueños me atrevo a matar
Olvidaremos todos esos
Momentos que juntos pasamos
Te juro que yo no podré olvidar
Pues la venganza es prioridad
Celebraremos que todo terminó
Con un vodka barato
Si quieres cerveza, si quieres
Si quieres un poco más
Porque tú muerta ya estás
Muerta estarás
Puedes estar tranquila
Pues solo en sueños me atrevo a matar
Porque tú muerta ya estás, muertas estarás
Puedes estar tranquila
pues, solo en sueños (lo que tenía, te lo ofrecí)
Me atrevo a matar (ahora solo tengo malos pensamientos)
De rojo te ves bien
Combina con tus ojos y tu piel
De rojo te ves bien, rojo sangre
De rojo te ves bien (rojo te ves bien)
Rojo te ves bien (rojo te ves)
De rojo te ves bien E
(rojo)
De rojo te ves bien (lo que pedías yo te lo di) (rojo te ves bien)
De rojo te ves bien (lo que tenía te lo ofrecí) (rojo te ves)
De rojo te ves bien E
(ahora solo tengo malos pensamientos) (rojo)
De rojo te ves bien (porque tú muerta ya estás, muerta estarás)
De rojo te ves bien
De rojo te ves bien (me atrevo a matar)
(Ahora solo tengo malos pensamientos)




[Disculpa los malos pensamientos acordes][Disculpa los malos pensamientos chords]
© LaCuerda.net · notícia legal · privacidade · es · en · pt · contato
DINAMICO