Cifras para Violão e Guitarra » P »Panda » Narcisista por excelencia (Tab)

Narcisista por excelencia
Panda

Letras, cifras e tablaturas para violão, guitarra, piano, ukulele e baixo

  • G#m
    Sabes que es la inseguridad,
    E
    Sabes lo que es sentir la soledad,
    G#m                        E
    Mi peor error fue haber aceptado mi fealdad
    
            G#m
    Porque ahora ya no tengo donde esconder el miedo
          E
    Y el miedo sigue vivo se la vive aquí conmigo
           G#m
    Yo me baso en la apariencia con placer y sin conciencia
         E                                         B      G#m
    Esperando a que algún día tu atención fijes en mí
    
                    E            B     F#
    Es por eso que ahora visto así
                   G#m         E           B      F#
    Quiero ser elegante y estilero hasta el fin
    
  • Intro.- Gm D# Gm D#
    
    Gm
    Sabes que es la inseguridad,
    D#
    Sabes lo que es sentir la soledad,
    A#                        F
    Mi peor error fue haber aceptado mi fealdad
    
            Gm
    Porque ahora ya no tengo donde esconder el miedo
          D#
    Y el miedo sigue vivo se la vive aquí conmigo
           A#
    Yo me baso en la apariencia con placer y sin conciencia
         F                                        Gm   Gm D# A#
    Esperando a que algún día tu atención fijes en mí
    
                     F            Gm D# A#
    Es por eso que ahora visto así
    
  • Esta es de Panda pero con la afinacion clasica; wow con las otras estan
    super bien jejejejejejejjejejejejeje
    Intro:
    
    e|----------------------------------------|
    b|----------------------------------------|
    G|----------------------------------------|
    D|----------------------------------------|
    A|----------------5--5---------------5--5-|
    E|-3--3--1--3--3-------3--3--1--3--3------|
     -----------------P.M.--------------------
    
    
    e|-------------------------------|
    b|-------------------------------|
    G|-------------------------------|:todo
    D|-------------------------------|--------x2:
    A|-6--6--6-6-5--5--6--6--6-6-5-5-|
    E|------6---------------6--------|
      ---------------P.M.------------
    
    e|------------------------------------------|
    b|------------------------------------------|
    G|------------------------------------------|
    D|-5--5--3--5--5--7--7--5--5--3--5--5--7--7-|
    A|-5--5--3--5--5--5--5--5--5--3--5--5--5--5-|
    E|-3--3--1--3--3--------3--3--1--3--3-------|
    
    
    e|---------------------------------
  • INTRO: se repite 2 veces en pal mute
    [---------------------------------------------------------]
    [---------------------------------------------------------]
    [---------------------------------------------------------]
    [---------------------------------------------------------]
    [-----------5-5-----------5-5-6-6---6-6-5-5-6-6---6-6-5-5-]
    [-3-3-1-3-3-----3-3-1-3-3---------6-------------6---------]
    
    se repite 2 veces
    [------------------------------------------------------------------]
    [------------------------------------------------------------------]
    [---------------7-7-------------7-7-8-8-----8-8-7-7-8-8----8-8-7-7-]
    [---5-5--3-5-5--7-7—-5-5—-3-5-5-7-7-8-8—-8—-8-8-7-7-8-8—-8-8-8-7-7-]
    [---5-5--3-5-5--5-5-—5-5—-3-5-5-5-5-6-6—-8—-6-6-5-5-6-6—-8-6-6-5-5-]
    [---3-3--1-3-3-------3-3—-1-3-3----------6---------------6---------]
    
    verso
    
    Sabes k es la inseguridad – Sabes lo k es sentir la soledad
    [------------------------] [-------------------------------]
    [------------------------] [-
  • Aquí les dejo esta canción chida de Panda que esta en 100% correcta
    Por aquí hay otras pero están mal y les faltan algunos adornos o
    Están en otro tono y hay que estar afinando la guitarra en otro tono
    Y más desma por eso les dejo esta versión correcta y en el tono normal
    De las guitarras a 440hrz el tono estándar de las guitarras
    Sale comentarios o dudas a mi mail: martinezdmg@homail.com
    
    Intro:
    
    E|----------------------------------------|
    B|----------------------------------------|
    G|----------------------------------------|
    D|----------------------------------------|
    A|----------------5--5---------------5--5-|
    E|-3--3--1--3--3-------3--3--1--3--3------|
    
    
    E|-------------------------------|
    B|-------------------------------|
    G|-------------------------------|
    D|-------------------------------|
    A|-6--6--6-6-5--5--6--6--6-6-5-5-|
    E|------6---------------6--------|
    
    E|----------------------------------------|
    B|----------------------------------------|
    G|------------------------
  • D/--------------/-------------/------------/------------/x2
    A/------------6-/-----------6-/-7--7--7--6-/-7--7--7--6-/
    E/-4--4--2--4---/4--4--2--4---/------7-----/------7-----/
    
    0:11 Intro2
    
    e/--------------/--------------/--------------/--------------/
    b/--------------/--------------/--------------/--------------/
    g/-------------8/-------------8/-9--9-----8--8/-9--9-----9--8/
    D/-6--6--4--6--8/-6--6--4--6--8/-9--9--9--9--8/-9--9--9--9--8/4x
    A/-6--6--4--6--6/-6--6--4--6--6/-7--7--9--7--6/-7--7--9--7--6/
    E/-4--4--2--4---/-4--4--2--4---/-------7------/-------7------/
    
    0:22 Sabes que es la inseguridad....aceptado mi fealdad
    
    e/------/--------/--------/------/----------------/
    b/------/--------/--------/------/----------------/
    g/------/-8--9-9-/--------/--9---/-----8h9--------/
    D/-6--6-/-8--9-9-/-4--6-6-/--9---/-4h6-8h9-6h4----/
    A/-6--6-/-6--7-7-/-4--6-6-/--7---/-4h6-6h7-6h4----/
    
  • Bueno, ahí la tienen
    la afinación está en bemol
    si no pueden afinarla en bemol
    toquenla un traste atras
    
    Intro 1
    0:00
    Guit. 2
    e|---------------------------------------------|
    B|---------------------------------------------|
    G|---------------------------------------------|
    D|---------------------------------------------|x2
    A|---------44---------44-55---55-44-55---55-44-|
    E|-44-2-44----44-2-44-------4----------4-------|
    pm:.. . .. .. .. . .. .. .. . .. .. .. . .. ..
    
    Intro 2
    0:11
    Guit. 1 y 2
    e|---------------------------------------------|
    B|---------------------------------------------|
    G|---------88---------88-99---99-88-99---99-88-|
    D|-66-4-66-88-66-4-66-88-99-9-99-88-99-9-99-88-|x2
    A|-66-4-66-66-66-4-66-66-77-9-77-66-77-9-77-66-|
    E|-44-2-44----44-2-44-------7----------7-------|
    
    0:22
    Sabes que es la inseguridad...
    Guit. 1 y 2
    e|----------------------------------------|
    B|----------------------------------------|
    G|--------8-99--------------99------------|
    D|-66-----8-99-----4-66--
  • Esta afinada en la entonacion normal (si la tienen en bemol
    solo token un traste abajo en ves del 3 el 4)
    
    Intro(despues de la guitarra entra el bajo i la bataka):
    
    E|-33-1-33----33-1-33------6-------6------|
    A|---------55---------5566--665566--6655--|
    D|----------------------------------------| x2
    G|----------------------------------------|
    
    Verso:
    
    Sabes Que es la...
    E|--33-|------|-1-33-|-----|1/10|
    A|-----|-5-66-|------|-66--|----|
    D|-----|------|------|-----|----|
    G|-----|------|------|-----|----|
    
    Porque Ahora ya no tengo..
    E|--1-333-|  |------|
    A|--------|  |-5666-|
    D|--------|x4|------|x4
    G|--------|  |------|
    
    Yo me vaso en la apariencia..
    E|--1-333-|  |------|
    A|--------|  |-5666-|
    D|--------|x4|------|x4
    G|--------|  |------|
    
                                  PRE-CORO:
    
    fijes en mi..                 Es Por Eso...
          E|-3333-------|--66666-|--------------|
          A|-----566666-|-8------|-8-1010101010-|x3  <----es el traste 10
          D|------------|--------|--------------|   
  • La afinación ya saben que va medio tono atrás, pero me ahorro
    la explicación, una excelente rola de Panda que aqui se las dejo
    para que la toquen, y arriba el bajo el mejor instrumento, sin el
    sería casi imposible hacer música,
    Saludos a Lola y a la prepa 2 y 5.
    
    Afinada en bemol (medio tono atrás)
    
    0:11 Intro:
    Despues de la guitarra
    
    g/---------------/--------------/-------------/----------------/
    D/---------------/--------------/-------------/----------------/x2
    A/------------6-6/-----------6-6/-7--7--7-7-6-6/-7--7--7-7-6-6-/
    E/4--4--2-4-4----/4--4--2-4-4---/------7------/-------7--------/
    
    0:22 Sabes que es la inseguridad....aceptado mi fealdad
    
    g/------/-----—--/--------/------/----------------/
    D/------/-----—--/-----—--/------/----------------/
    A/------/-6--7—7-/-----—--/--7-7-/-----6h8--------/
    E/-4--4-/--------/-2--4—4-/------/-2/4-----4/2----/
    
    0:34 Porque ahora yo no tengo...
    
    g/---------/x2  /-—---------/x2
    D/-----———-/    /-—---------/
    A/-———-----/    /-
  • +
    ¡Colabora con nosotros!
    Envíanos tu versión de esta canción

Letra de Narcisista por excelencia
Sabes que es la inseguridad,
Sabes lo que es sentir la soledad,
Mi peor error fue haber aceptado mi fealdad
Porque ahora ya no tengo donde esconder el miedo
Y el miedo sigue vivo se la vive aquí conmigo
Yo me baso en la apariencia con placer y sin conciencia
Esperando a que algún día tu atención fijes en mí
Es por eso que ahora visto así
Quiero ser elegante y estilero hasta el fin
No podré proyectarlo me lo tengo que creer
Suponiendo que en la gente la belleza es natural
Pues belleza es la palabra que aun no logro concretar
Disfraz, disfraz, narcisista artificial
Disfraz, disfraz, todo es mental
G#m E G#m E (x4)con esos acordes bajea fuerte las cuerdas EAD
Como me peinaré esta noche
Que ropa me combinará mejor
Tener tu interés, convertirlo en amor
Quisiera saber que es lo que piensas
¿Me veré bien o acaso me veo mal?
Se que es patético, pero en mi es normal
Suponiendo que en la gente la belleza es natural
Pues belleza es la palabra que aun no logro concretar
Disfraz, disfraz, narcisista artificial
Disfraz, disfraz, todo es mental
""Intermedio con piano""
Suponiendo que en la gente la belleza es natural
Pues belleza es la palabra que aun no logro concretar
Disfraz, disfraz, narcisista artificial
Disfraz, disfraz, todo es mental




[Narcisista por excelencia acordes][Narcisista por excelencia chords]
© LaCuerda.net · notícia legal · privacidade · es · en · pt · contato
DINAMICO