Cifras para Violão e Guitarra » P »Panda » Feliz Cumpleaños (Tab)

Feliz Cumpleaños
Panda

Letras, cifras e tablaturas para violão, guitarra, piano, ukulele e baixo

  • Intro: C
    
     Am           E        F
    Feliz cumpleaños, no puedo estar ahi
    Am           E        F
    En cuerpo pero en espiritu si
    Am           E        F
    Mi lugar ocupado esta ahora
        Am           E        F
    ¡No importa, tendrás muchos cumples mas!
    
    C
    
      Am           E        F
    Hasta ser ancianos te celebrare
    Am                E        F
    No me ire de tu lado, moriremos despues
      Am           E        F
    De que juntos lleguemos a la conclusión
    Am           E        F
    
  • D <---- PEPE
    
    ARTUR
    |-----------------------------------------|
    |-----------------------------------------|
    |--7-7-6----------------------------------|
    |--------9-7------------------------------|
    |-------------9-10-9-7-5------------------|
    |-----------------------------------------|
    
    F#m           G              Bm
    Feliz cumpleaños, no puedo estar ahi
     F#m           G              Bm
    En cuerpo pero en espiritu si
      F#m        G          Bm
    Mi lugar ocupado esta ahora
             F#m                   G
    ¡No importa, tendrás muchos cumples mas!
    
    D <---- esto va en el medio PEPE
    
  • LAm           MIm              F#
    Feliz cumpleaños, no puedo estar ahi
     LAm          MIm           F#
    En cuerpo pero en espiritu si
     LAm        MIm          F#
    Mi lugar ocupado esta ahora
            LAm                   G
    ¡No importa, tendrás muchos cumples mas!
    
    D <---- esto va en el medio PEPE
    
    ARTUR
    |-----------------------------------------|
    |-----------------------------------------|
    |--7-7-6----------------------------------|
    |--------9-7------------------------------|
    |-------------9-10-9-7-5------------------|
    |-----------------------------------------|
    
    LAm           MIm              F#
    
  •         C#                           F                          C#
    1----------------I---------------I-----------------I---------------I-
    1----------------I---------------I-----------------I---------------I-
    1------6-6ˆ7-4---I---------------I-----6-6ˆ7-6-4---I---------------I-
    1---0------------I-7--4-4ˆ5-4----I-----------------I--7--4-4ˆ5-4---I-
    1----------------I------------7--I--5--------------I-------------4-I-
    1----------------I---------------I-----------------I---------------I-
    
                F              C#                  F              C#
    1-----------------I----------------I-----------------I---------------I
    1-----------------I----------------I-----------------I---------------I
    1------6-6ˆ7-6-4--I----------------I-----6-6ˆ7-6-4---I---------------I
    1-----------------I--7--4-4ˆ5-4----I-----------------I-7--4-4ˆ5-4--7-I
    1---5-------------I--------------7-I--5--------------I---------------I
    1-----------------I----------------I-----------------I---------------I
    
    F
    
    A#m         Fm
    Feliz cumpleaños,
    
  •  C#                 F    <= PEPE
    
    ARTUR
    |-----------------------------------------|
    |-----------------------------------------|
    |--5-6-5-3-1------------------------------|
    |------------3-4-3-1----------------------|
    |--------------------4--------------------|
    |-----------------------------------------|
    
    A#m           Fm             F#
    Feliz cumpleaños, no puedo estar ahi
     A#m           Fm             F#
    En cuerpo pero en espiritu si
      A#m        Fm         F#
    Mi lugar ocupado esta ahora
             A#m                G#
    ¡No importa, tendrás muchos cumples mas!
    
     C#                 F    <= PEPE
    
  • Hola, bueno aquí les dejo esta canción, es la versión corregida,
    espero que les guste. Califiquen, no cuesta nada.
    
    Panda- Feliz cumpleaños.
    
    Intro:
    G)-------------------------------------|
    D)-------------------------------------|
    A)---4-5-4--2-0------------------------| X4
    E)-0------------4-5-4-2-0--------------|
    
    Verso: “Feliz cumpleaños…”
    G)----------|
    D)----------|
    A)-2/9------| X4
    E)-----4-5--|
    
    G)----------|
    D)----------|
    A)-2/9-0----|
    E)-------7--|
    
    Intro:
    
    G)-------------------------------------|
    D)-------------------------------------|
    A)---4-5-4--2-0------------------------|
    E)-0------------4-5-4-2-0--------------|
    
    Verso: “Hasta ser muy ancianos te celebrare…”
    G)----------|
    D)----------|
    A)-2/9------|X3
    E)-----4-5--|
    
    G)----------|
    D)----------|
    A)-2/9-0----|
    E)-------7--|
    
    Coro: “Yo no te comprare solo una rosa, toda la florería…”
    G)------------------------------------------|
    D)-----------------------------12-14--------|
    A)-----------------444-11-12-11-----11
  • se repite la parte final del intro
    
    F#)--------------------------
    C#)--------------------------
    G#)-5--4-5-4-----------------
    D#)----------7-5--2-3-2-5-7--
    
    "Hasta ser ancianos t celebrare...."
    
    F#)-------------------
    C#)-------------------
    G#)----9/------------- x4
    D#)-7-----2-22-3-33-7-
    
    F#)-------------------
    C#)-------------------
    G#)---9/--------------
    D#)-7----5-5/12/------
    
    CORO:
    
  • +
    ¡Colabora con nosotros!
    Envíanos tu versión de esta canción
  • Tutorial
    Como tocar Feliz Cumpleaños - PANDA - en Guitarra Acustica (HD)
    Tutorial COMPLETO
    9:05

Letra de Feliz Cumpleaños
ARTUR
Feliz cumpleaños, no puedo estar ahi
En cuerpo pero en espiritu si
Mi lugar ocupado esta ahora
¡No importa, tendrás muchos cumples mas!
ARTUR
Hasta ser ancianos te celebrare
No me ire de tu lado, moriremos despues
De que juntos lleguemos a la conclusión
Que ya es hora de partir
Yo no te comprare solo una rosa toda la floreria
Yo te recitare aquel poema que no existe todavia
Mas no puedo desde acá
ARTUR
(estos acordes de aca arriba son casi continuos para sacar
la tonada del medio y se repiten X2)
¡Feliz cumpleaños, aún huele a ti!
Ese dia de otoño que ahora es gris
Pues no tengo manera para regresarle el color a esta obscuridad
Feliz cumpleaños, me quito el bombín
Con todo respeto te deseo a ti
Nunca nadie podrá festejarte jamás
Como yo lo haria acá
Yo no te comprare solo una rosa, toda la floreria
Yo te recitare aquel poema que no existe todavia
¡Si pásala bien! Mas no se te olvide es un dia cualquiera
Pues yo te celebrare los 365 hasta que muera
Mas no puedo desde acá
Ohhhhh oh oh ohh oh oh oh oh oh oh!
Ohhhhh oh oh ohh oh oh oh oh oh oh!
¡Yo no puedo desde aca!




[Feliz Cumpleaños acordes][Feliz Cumpleaños chords]
© LaCuerda.net · notícia legal · privacidade · es · en · pt · contato
DINAMICO