Cifras para Violão e Guitarra » P »Panda » Romance en Re sostenido (Tab)

Romance en Re sostenido
Panda

Letras, cifras e tablaturas para violão, guitarra, piano, ukulele e baixo

  •    D#         Cm                 Fm
    Me dicen por ahí la música es alimento
                               A#
    del amor, siendo este el cimiento de la vida.
      D#           Cm                 Fm
    Entonces sería yo aquel pasado de peso,
                        A#
    romántico hasta el hueso, qué ironía.
    
    D#               Cm
    Mas todo es al revés,
                      Fm
    le escribí más de tres
                      A#
    cientas diez canciones.
    D#              Cm
    Y nada cambia aquí,
                Fm
    sigo de infeliz
                   A#
    
  •     D           Bm
    Me dicen por ahí
                    G
    La música es alimento
                                 A
    Del amor siendo hasta el cimiento
    De la vida
       D             Bm
    Entonces sería yo
                     G
    Aquel pasado de peso
                        A
    Romántico hasta el hueso
    ¡Qué ironía!       D
                     Bm
    Mas todo es al revés
                       G       A     D
    Le escribí más de 310 canciones
                     Bm
    Y nada cambia aquí
    
  • e--------------------------------------------
    b---8--------------4---3--------------9------
    g--------------------------------------------
    D--------------------------------------------
    A---6--------------3------------------8------
    E--------------------------------------------
       Me dicen por hay, la música es alimento,
    
    e---------------------------------------------
    b-----------------------------4--------3------
    g---------------------------------------------
    D---------------------------------------------
    A-----------------------------1---------------
    E---------------------------------------------
       del amor siendo este el simiento de la vida
    
    e---------------------------------------------
    b---8---------------4--3----------------9-----
    g---------------------------------------------
    D---------------------------------------------
    
  • aki les dejo esta cancion ta chingona,perrona,la mejor ufff
    un saludo para los flokers
    me encanto esta cancion y ya la avia intentado subir desde ase 2 meses
    pero ya ven la weva XD
    porfa denlen muy bien esta nadamas aka arribita
    
    empieza en el (seg 48) (DEJAS SONAR LOS TONOS)
    
    G-----------------
    D-----------------
    A--6--3--8--------X2
    E-----------6-----
    
    
    VERSO 1 (seg 1:19)
    G----------------------------------------
    D-------------------------------------10-----
    A--8888-10-11---------6666-8-10--------10---X2
    E------------6666-8-10---------8888888---10-
    
    
    PUENTE  (seg 1:31)
    E----------------------
    D-----------------------
    A--8888-10-11-----------
    E------------6666666666-
    
    
    CORO    ( seg 1:36)
    G------------------------------------------------------
    D-----8-----8-----5-----5-----10-----10-----------------X2
    A--666-6-666-6-333-3-333-3-888--8-888--8----8--13-11-10-8
    E----------------------------------------666-6-----------
    
    
    VERSO 2 ( seg 1:57)
    
    G----------------------------------------------
  • +
    ¡Colabora con nosotros!
    Envíanos tu versión de esta canción

Letra de Romance en Re sostenido
Me dicen por ahí
La música es alimento
Del amor siendo hasta el cimiento
De la vida
Entonces sería yo
Aquel pasado de peso
Romántico hasta el hueso
Mas todo es al revés
Le escribí más de 310 canciones
Y nada cambia aquí
Sigo de infeliz, buscando soluciones
Y me encantaría caer, no sólo tropezar,
Por alguien que realmente aprecie mi cantar
No quiero ser aquel que ya desperdició
La vida entera haciendo tonto al corazón
Ni modo, ese soy yo
Me dicen por ahí
Que lo único necesario
Realmente extraordinario
Es el amor
Entonces cambiaré
O dejaré el canto y a mi guitarra
Pues no me ha servido de nada
Mas todo sigue igual
La lectura más capaz no me servirá
Y es que la verdad no he podido conjugar
El verbo amar
Me encantaría caer, no sólo tropezar,
Por alguien que realmente aprecie mi cantar
Y tengo tanto amor más no donde depositar
Pues todo recipiente ocupado está,
Así ¿cómo no fallar?
Me encantaría caer, no sólo tropezar,
Por alguien que realmente aprecie mi cantar
De esta enfermedad, pequeña dosis soledad
¿Acaso soy el único que vive mal?
Así ¿cómo no fallar?
No puedo abandonar mi único manjar, mi único alimento,
Mas no quiere decir que esta cicatriz sea sólo un recuerdo...
Eso es todo, espero les sirva de algo
Dedicada para la gente como yo, que se describe en esta canción
y para mi ex, que sinceramente, es lo mejor que me ha pasado...
SALUDOS FXNDXS!!




[Romance en Re sostenido acordes][Romance en Re sostenido chords]
© LaCuerda.net · notícia legal · privacidade · es · en · pt · contato
DINAMICO