Cifras para Violão e Guitarra » R »los Rancheros » El Ché y Los Rolling Stones (Tab)

El Ché y Los Rolling Stones
los Rancheros

Letras, cifras e tablaturas para violão, guitarra, piano, ukulele e baixo

  •       Bm    D    E    G    A    Asus2   Asus4
    1º    -2-  -2-  -0-  -3-  -0-    -0-     -0-
    2º    -3-  -3-  -0-  -0-  -2-    -0-     -3-
    3º    -4-  -2-  -1-  -0-  -2-    -2-     -2-
    4º    -4-  -0-  -2-  -0-  -2-    -2-     -2-
    5º    -2-  -x-  -2-  -2-  -0-    -0-     -0-
    6º    -x-  -x-  -0-  -3-  -x-    -x-     -x-
    
    VersoI:
    
    A                         Bm
    Contra una pared dejé pintados
                          D
    Nuestros nombres enlazados
          E            A Asus2 Asus4 A Asus2 A
    Salpicados con el aerosol
    
    A                          Bm
    Junto a una leyenda que decía
                       D
    
  • A                          Bm
    Contra una pared dejé pintados
                          D
    Nuestros nombres enlazados
            E             A Asus2 Asus4 A Asus2 A
    Salpicados con el aerosol
    
    Junto a una leyenda que decía
    'Escapemos de esta vida'
    Viva el Che y los Rolling Stones
    
    Pre Coro
    G        D     A Asus2 Asus4 A Asus2 A
    Y me aleje de ti
    G        D       A        E
    Suerte que te perdi Uouh oh
    
    Verso 2
    Fuimos como una tribu de salvajes
    Defendiendo con coraje
    
  •   A                            Bm
    ------------------------------------------------------------
    --3s5--5-5-5-5-5-5-3~.-2~.----------------------------------
    --------------------------4~.--4s7--7-7-7-7-7-7-6~.-4~.-2~.-
    ------------------------------------------------------------
    ------------------------------------------------------------
    ------------------------------------------------------------
    
      D                  E         A
    -----------------------------------
    -----------------------------------
    --2s7--7-7-7-7-7-7-7-6~.-4~.-2-2~.-
    -----------------------------------
    -----------------------------------
    -----------------------------------
    
    Solo:
    
      A                            Bm
    ------------------------------------------------------------
    
  • e-0---(0)---0-0-0-0--0---(0)---0-0-0
    B-3/5-(5)---3-2-0-0--2/3-(3)---2-0--
    G----------------------------------2
    Lo q esta en parentesis
    se repite 7 veces solo eso nada mas
    
    e-0----0-0-0-0-0-0-0--0-0--0-0------
    B-2/3--3-3-3-3-3-3-3--2-0-----------
    G--------------------------2-2------
    
    A                         Bm
    Contra una pared dejé pintados
                          D
    Nuestros nombres enlazados
          E            A Asus2 Asus4 A Asus2 A
    Salpicados con el aerosol
    
    A                          Bm
    Junto a una leyenda que decía
                       D
    
  • E10p12-12-12-12-12-10-9---------9p10-10-10-10-10-9--
    B--------------------------12--------------------
    G---------------------------------------------
    D---------------------------------------------
    A---------------------------------------------
    E---------------------------------------------
    
    ------9p10-10-10-10-10-9-|
    12-10--------------------|
    -------------------------|
    -------------------------|
    -------------------------|
    -------------------------|
    
    E-9---------------------------------|
    B---10------------------------------|
    G-------9---------------------------|
    D-----------------------------------|
    A-----------------------------------|
    E-----------------------------------|
    
  • ESTO ES EL PRIMER VERSO: SE TOCA 2 VECES
    
    G/-2-22-22-2-22-22-3-33-33-3-33-33-----------------2-22-22-2-22-22-/
    D/-----------------------------------------2-22-22-----------------/
    A/---------------------------------5-55-55-------------------------/
    E/-----------------------------------------------------------------/
    
    
    ESTA ES LA PARTE DEL PRE CORO: SOLO SE TOCA UNA VEZ
    
    G/-----------------2-22-22-2-22-22-----------------2-22-22---------/
    D/---------------------------------------------------------2-22-22-/
    A/---------5-55-55-------------------------5-55-55-----------------/
    E/-3-33-33-------------------------3-33-33-------------------------/
    
    ESTA ES LA PARTE DEL CORO Y SE TOCA 2 VECES
    
    G/---------2-22-22-------------------------2-22-22---------/
    D/-----------------2-22-22-4-44-44-----------------2-22-22-/
    A/-5-55-55-------------------------5-55-55-----------------/
    E/---------------------------------------------------------/
    
    ACA ENTRA EL SOLO DE LA GUITARRA
    
    …………………………………
  • +
    ¡Colabora con nosotros!
    Envíanos tu versión de esta canción
  • Tutorial
    HD
    Explicado - Como tocar "El Che y los Rolling Stone" de Los Rancheros en el bajo tutorial#188
    11:34

Letra de El Ché y Los Rolling Stones
Contra una pared dejé pintados
Nuestros nombres enlazados
Salpicados con el aerosol
Junto a una leyenda que decía
'Escapemos de esta vida'
Viva el Che y los Rolling Stones
Pre Coro
Y me aleje de ti
Suerte que te perdi Uouh oh
Verso 2
Fuimos como una tribu de salvajes
Defendiendo con coraje
Lo que dicta el corazón
Recuerdo aquella tarde en el pasillo
Cuando sacaste un cuchillo
Y probamos el dolor
Pre Coro
Fuiste tan dulce nena
Pero a la vez perversa
Siempre me hablabas de morir
Y te seguí los pasos
Hasta que tu locura
Me comenzaba a destruir




[El Ché y Los Rolling Stones acordes][El Ché y Los Rolling Stones chords]
© LaCuerda.net · notícia legal · privacidade · es · en · pt · contato
DINAMICO