Cifras para Violão e Guitarra » R »los Rancheros » Será (Tab)

Será
los Rancheros

Letras, cifras e tablaturas para violão, guitarra, piano, ukulele e baixo

  • D              Bm
    Catalina dijo que me amaba
       Em           A
    Y para mí fue suficiente
    D              Bm
    Con alfileres y con tinta china
       Em           A
    Nos tatuamos para siempre
    
    *-Pre Coro
    G      A            D
    Y el amor sobre la hierba
    G      A            D
    Hizo mágica las siestas
    
    *-Verso 2
    Con papel de cigarrillo
    Fabricamos dos anillos
    Robamos flores de la galería
    Mientras tú loca reías
    
  • D              Bm
    Catalina dijo que me amaba
       G           A
    Y para mí fue suficiente
    D              Bm
    Con alfileres y con tinta china
       G           A
    Nos tatuamos para siempre
    
    *-Pre Coro
    G      A            Bm
    Y el amor sobre la hierba
    G      A            D
    Hizo mágica las siestas
    
    *-Verso 2
    Con papel de cigarrillo
    Fabricamos dos anillos
    Robamos flores de la galería
    Mientras tú loca reías
    
  •  G     A                D
    
    Y el amor sobre la hierba
    
     G      A                 D - Dsus2 - Dsus4 - D
    
    Hizo mágicas las siestas.
    
    
    
    Estribillo:
    
    D           A    G         A
    
    Sigue tu camino, siempre será el mío
    
    D            A      G     A        D
    
    Sigue tu camino y así libre serás.
    
    
  •      RE           SIm          SOL        LA
    1 --------0h2---------------------0--------0--
    2 ------3-----------2h3---------3----------2--
    3 ----2-----------4-----------0------------0--  
    4 --0-----------4-----------------------2--2--
    5 ------------2----------------------0--------
    6 -------------------------3------------------
    
    ESTROFA
         RE           SIm          SOL        LA
    1 -----------0h2----------------------------0--------0--
    2 --------3----------------2h3------------3----------2--
    3 -----2----------------4--------------0-------------0--  
    4 --0-----------------4---------------------------2--2--
    5 -----------------2-------------------------0----------
    6 ---------------------------------3--------------------
        catalina dijo que me amava y para mi fue suficiente
         RE           SIm          SOL        LA
    1 -----------0h2----------------------------0----------0--
    2 --------3----------------2h3------------3------------2--
    
  • +
    ¡Colabora con nosotros!
    Envíanos tu versión de esta canción

Letra de Será
Catalina dijo que me amaba
Y para mí fue suficiente
Con alfileres y con tinta china
Nos tatuamos para siempre
*-Pre Coro
Y el amor sobre la hierba
Hizo mágica las siestas
*-Verso 2
Con papel de cigarrillo
Fabricamos dos anillos
Robamos flores de la galería
Mientras tú loca reías
*-Pre Coro
Y caímos en el sueño
Tan díficil de alcanzar
*-Coro
Sigue tu camino
Siempre será el mío
Sigue tu camino
Y así libre serás
Será como tu quieras
Será mejor
Morir de amor
*-Verso 3
Subiremos la autopista
'Hacia el oeste', me decías
Podrás mirar el horizonte
Y ver el sol cuando se esconde
*-Pre Coro
Nos besamos sobre un puente
Y aprendimos a volar




[Será acordes][Será chords]
© LaCuerda.net · notícia legal · privacidade · es · en · pt · contato
DINAMICO