Cifras para Violão e Guitarra » S »Shakira » Ciega Sordomuda (Tab)

Ciega Sordomuda
Shakira

Letras, cifras e tablaturas para violão, guitarra, piano, ukulele e baixo

  • C                        F
        Se me acaba el argumento
                  C
    y la metodologia
                       F              G           C
    cada vez que se aparece frente a mi tu anatomia
                              F
    Porque este amor ya no entiende
                       C
    de consejos, ni razones
                       F
    se alimenta de pretextos
          G          C       Dm
    y le faltan pantalones
                       F             C
    este amor no me permite estar de pie
                              G           Dm
    porque ya hasta me ha quebrado los talones
                      F           G
    aunque me levante volvere a caer, si te acercas nada es util
    
  •    F#       C#                                 F#        C#
    e---------------4-4-4----2-2-2----1-1-1---------------------
    B---------------6-6-6----4-4-4----2-2-2-----4---------------
    G-------------------------------------------5---------------
    D-----------------------------------------------------------
    A-----------------------------------------------------------
    E-----------------------------------------------------------
    
    
    C#                       F#
        Se me acaba el argumento
                  C#
    y la metodología
                       F#             G#          C#
    cada vez que se aparece frente a mi tu anatomía
                              F#
    Porque este amor ya no entiende
                       C#
    de consejos, ni razones
                       F#
    
  •       F         C                                                F         C
    e-------------------------3-3-3-----1-1-1-----0-0-0-----------------------------
    B-------------------------5-5-5-----3-3-3-----1-1-1-----3-----------------------
    G-------------------------------------------------------4-----------------------
    D-------------------------------------------------------------------------------
    A-------------------------------------------------------------------------------
    E-------------------------------------------------------------------------------
    
    
    C                        F
        Se me acaba el argumento
                  C                     
    y la metodologia
                       F              G           C
    cada vez que se aparece frente a mi tu anatomia
                              F
    Porque este amor ya no entiende
                       C
    de consejos, ni razones
                       F
    
  • Gtr I   (E A D G B E) - Guitarra
    Gtr II  (E A D G B E) - Trompeta Mariachi
    Gtr III (E A D G B E) - Guitarra 
    Gtr IV  (E A D G B E) - Guitarra Nylon
    
      Q=120
     4/4
      Gtr I
      W          S  E. +Q    +H
    |----------|-----------------------|
    |----------|----1--(1)---(1)-------|
    |----------|----2--(2)---(2)-------|
    |----------|----3--(3)---(3)-------|
    |----------|-3---------------------|
    |----------|-1---------------------|
    |
    | Gtr II
    | W          Q.        E  Q.   S S
    |----------|-----------1--1----5---|
    |----------|-1---------------------|
    
  • La afinacion del bajo es normal (E A D G)
    
      Q=120
     4/4
      Gtr I
      W          W          W          W
    |----------|----------|----------|------|
    |----------|----------|----------|------|
    |----------|----------|----------|------|
    |----------|----------|----------|------|
    
    
      W          W          W          E E E E E E E E
    |----------|----------|----------|---5---5---5---5-|
    |----------|----------|----------|-----------------|
    |----------|----------|----------|-3---3---3---3---|
    |----------|----------|----------|-----------------|
    
    
      E E E E E E E E   E E E E E E E E   E E E E E E E E   E E E E E E E E
    |---5---5---5---5-|-----------------|-----------------|---5---5---5---5-|
    |-----------------|---3---3---3---3-|---3---3---3---3-|-----------------|
    |-3---3---3---3---|-3---3---3---3---|-3---3---3---3---|-3---3---3---3---|
    |-----------------|-----------------|-----------------|-----------------|
    
    
      E E E E E E E E   E E E E E E E E   E E E E E E E E   E E E E E E 
  • esta cancion se toca con un 'Fretless Bass' para mejor calidad 
    es un imprecionante bajo de shakira echenle ganas BAJISTAS
    ramonhernan36@hotmail.com si tengo msn!
                                                                                   
    G||------------------|------------------|------------------|------------------|
    D||------------------|------------------|------------------|------------------|
    A||------------------|------------------|------------------|------------------|
    E||------------------|------------------|------------------|------------------|
    
    
                                                                   
    ------------------|------------------|----------------3-6-3---|
    ------------------|------------------|------------4-6-------4-|
    ------------------|------------------|------------------------|
    ------------------|------------------|------------------------|
    
    
                                                             
    -----6-----6-----6-----6--|-----6----
  • +
    ¡Colabora con nosotros!
    Envíanos tu versión de esta canción

Letra de Ciega Sordomuda
Se me acaba el argumento
y la metodologia
cada vez que se aparece frente a mi tu anatomia
Porque este amor ya no entiende
de consejos, ni razones
se alimenta de pretextos
y le faltan pantalones
este amor no me permite estar de pie
porque ya hasta me ha quebrado los talones
aunque me levante volvere a caer, si te acercas nada es util
para esta inutil
bruta, ciega, sordomuda, torpe, traste, testaruda
es todo lo que he sido, por ti me he convertido
en una cosa que no hace otra cosa mas que amarte
pienso en ti dia y noche y no se como olvidarte
Cuantas veces he intentado
enterrarte en mi memoria
y aunque diga ya no mas es otra vez la misma historia
porque este amor siempre sabe
hacerme respirar profundo
ya me trae por la izquierda y de pelea con el mundo
si pudiera exorcizarme de tu voz, si pudiera escaparme de tu nombre
si pudiera arrancarme del corazon, y esconderme para no
sentirme nuevamente
bruta, ciega sordomuda, torpe, traste, testaruda
es todo lo que he sido, por ti me he convertido
en una cosa que no hace otra cosa mas que amarte
pienso en ti dia y noche, y no se como olvidarte
ojerosa, flaca, fea, desgreñada, torpe, tonta, lenta, necia, desquiciada
completamente descontrolada, tu te das cuenta y no me dices nada
ves que se me ha vuelto la cabeza un nido, donde solamente tu tienes asilo
y no me escuchas lo que te digo, mira bien lo que vas a hacer conmigo
bruta, ciega, sordomuda, torpe, traste, testaruda
es todo lo que he sido, por ti me he convertido
en una cosa que no hace otra cosa mas que amarte
pienso en ti dia y noche, y no se como olvidarte




[Ciega Sordomuda acordes][Ciega Sordomuda chords]
© LaCuerda.net · notícia legal · privacidade · es · en · pt · contato
DINAMICO