Cifras para Violão e Guitarra » S »Shakira » Si Te Vas (Tab)

Si Te Vas
Shakira

Letras, cifras e tablaturas para violão, guitarra, piano, ukulele e baixo

  • D-A-Em  x2
    O si no el punteo como es
    
    X quiere decir al aire, es decir, la tocas sin pisarla
       D       A       Em
    E -----------------X---------------------
    A ---------X-----------------------------
    D -X-------------------------------------
    G ---2---2---2---2---4---4---------------
    B -----5-------5-------5----------3------
    E --------------------------3-2-X--------
    
    
     D                A              Em
    cuentame que harás después que estrenes su cuerpo
     D           A           Em
    cuando muera tu traviesa curiosidad
     D           A           Em
    cuando memorices todos sus recobecos
     D          A            Em
    
  • DO SOL y LAm
    
    DO             SOL               LAm
    Cuentame que harás después que extrañes su cuerpo
    DO           SOL         LAm
    Cuando muera tu traviesa curiosidad
    DO         SOL         LAm               DO        SOL      LAm
    cuando memorices todos sus recobecos y decidas otravez regresar
              DO            SOL  
    ya no estaré aqui en el mismo lugar
    
    DO          SOL               LAm             DO    
    Si no tiene más que un par de dedos de frente, y descubres 
    SOL        LAm                  DO           SOL         LAm
    que no se lava bién los dientes,si te quita los pocos centavos 
                          DO        SOL      LAm 
    que tienes y luego te deja solo tal como quiere
    
    FA                   SOL                          DO        
    Sé que volveras el día en que ella te haga trizas sin almohadas 
    
  • D-A-Em  x2
    O si no el punteo como es
    
    X quiere decir al aire, es decir, la tocas sin pisarla
       D       A       Em
    E -----------------X---------------------
    A ---------X-----------------------------
    D -X-------------------------------------
    G ---2---2---2---2---4---4---------------
    B -----5-------5-------5----------3------
    E --------------------------3-2-X--------
    
    
     D                A              Em
    cuentame que harás después que estrenes su cuerpo
     D           A           Em
    cuando muera tu traviesa curiosidad
     D           A           Em
    cuando memorices todos sus recobecos
     D          A            Em
    
  • D A Em 
    
    D A Em
    
    
    PUNTEO
    
        D        A           Em               D         A          Em
    E -----------------------0-------------------------------------0---------------
    A -----------0--------------------------------------0--------------------------
    D --0-----------------------------2-------0-----------------------------2------
    G ----2--------2-----------0---0------------2----------2---------0---0---------
    B ---------3--------3--------0---------0---------3----------3------0--------0--
    E -------0--------0---------------320----------0----------0-------------320----
    
    
    RIFF
    
    E------------------------------------
    A------------------------------------
    
  • Intro    D  A  Em  (2)
    
       D       A       Em
    e--------------------------3-2-0--------
    B-----5-------5-------5----------3------
    G---2---2---2---2---4---4---------------
    D-0-------------------------------------
    A---------0-----------------------------
    E-----------------0---------------------
    
     D                A              Em
    Cuéntame que harás después que estrenes su cuerpo,
    cuando muera tu traviesa curiosidad,
    cuando memorices todos sus recovecos,
    y decidas otra vez regresar,
    ya no estaré aquí en el mismo lugar.
    
    Si no tiene más que un par de dedos de frente,
    y descubres que no se lava bien los dientes,
    si te quita los pocos centavos que tienes,
    
  • esta es la transcricion para bajo de esta cancion. ademas creo
    que shakira tiene excelentes musicos.
    
    verso 1
    
    G--------------------------------------------------------------
    D--------------------------------------------------------------
    A--------------------------------------------------------------
    E------/10/5--0------------------------------------------------
    
    ya no estare aqui en el mismo lugar.
    
    Verso 2.
    
    G---------------------------------------------------------------
    D---------------------------------------------------------------   x4
    A---------------------------------------------------------------
    E---9/5--0-0-0-0-0-0--------------------------------------------
    
    pre coro:
    
    G---------------------------------------------------------------
    D---------------------------------------------------------------  x2
    A--------------------------------------5-5-5-5-4-4-4-4-2-2-2-2--
    E-3-3--3--3-3---5--5-5---5--5-5---5-5---------------------------
    
    G---------------
  • +
    ¡Colabora con nosotros!
    Envíanos tu versión de esta canción

Letra de Si Te Vas
O si no el punteo como es
X quiere decir al aire, es decir, la tocas sin pisarla
cuentame que harás después que estrenes su cuerpo
cuando muera tu traviesa curiosidad
cuando memorices todos sus recobecos
y decidas otra vez regresar
ya no estaré aquí en el mismo lugar
si no tiene más que un par de dedos de frente
y descubres que no se lava bien los dientes
si te queta los pocos centavos que tienes
y luego te deja solo tal como quiere
sé que volverás el día
en que ella te haga trizas
sin al mohadas para llorar
pero si te has decidido y no quieres más conmigo
nada ahora puede importar
porque sin ti
el mundo ya me da igual
si te vas, si te vas, si te marchas
mi cielo se hará gris
si te vas, si te vas, ya no tienes
que venir por mi
si te vas, si te vas, y me cambias
por esa bruja, pedazo de cuero
no vuelvas nunca más
que no estaré aquí
toda escoba nueva siempre barre bien
luego vas a ver desgastadas las cerdas
cuando las arrugas le corten la piel
y la celulitis invada sus piernas
volverás desde tu infierno
con el rabo entre los cuernos
implorando una vez más
pero para ese entonces
yo estaré un millón de noches
lejos de esta enorme ciudad
lejos de ti
el mundo ya me da igual
si te vas, si te vas, si te marcha...




[Si Te Vas acordes][Si Te Vas chords]
© LaCuerda.net · notícia legal · privacidade · es · en · pt · contato
DINAMICO