Cifras para Violão e Guitarra » S »Shakira » Pies Descalzos, Sueños Blancos (Tab)

Pies Descalzos, Sueños Blancos
Shakira

Letras, cifras e tablaturas para violão, guitarra, piano, ukulele e baixo

  • E        F#m          A
      Perteneciste a una raza antigua
          B                          E
      de pies descalzos y de suenos blancos.
               F#m         A
      Fuiste polvo, polvo eres piensa
              B                          A            E
      que el hierro siempre al calor es blando.
    
    
    1)(Machaque)
     E                   F#m
      Tu mordiste la manzana
                           A
      y renunciaste al paraiso
                             B
      y condenaste a una serpiente
                                E
      siendo tu el que asi lo quiso.
                        F#m
    
  • E        A           C#m
      Perteneciste a una raza antigua
          B             A             E
      de pies descalzos y de suenos blancos.
              A           C#m
      Fuiste polvo, polvo eres piensa
              B             A             E
      que el hierro siempre al calor es blando.
    
    
    1)
     E                   C#m
      Tu mordiste la manzana
                           A
      y renunciaste al paraiso
                             B
      y condenaste a una serpiente
                                E
      siendo tu el que asi lo quiso.
                        G#m
    
  • then the chorus are the chords and the lead part underneath
    e|------------------------------------------------------------------------------------------------------|
    B|------------------------------------------------------------------------------------------------------|
    G|-9-9-9-9-9------------------------------------------9-------------------------------------------------|
    D|-9-9-9-9-9--9-9-9-9-9--7-7-7-7-7--9-9-9-9-9-----7---9--9-9-9-9-9-9-9-9--------------------------------|
    A|-7-7-7-7-7--9-9-9-9-9--7-7-7-7-7--9-9-9-9-9-x2--7---7--9-9-9-9-9-9-9-9--------------------------------|
    E|------------7-7-7-7-7--5-5-5-5-5--7-7-7-7-7-----5------7-7-7-7-7-7-7-7--------------------------------|
    
    E|------------------------------------------------------------------------------------------------------|
    B|------------------------------------------------------------------------------------------------------|
    G|--8h9-9-9-9-9-9-9--8h9-9-9-9-9-9-9--8h9-9-9-9-9-9-9--8h9-9-9--8h9--11--x2------
  • esta cancion me encanta
    y como lo baila en el video es chido
    escuchen bien y veran bueno oiran que
    no toca constantemente
    solo al ritmo
    bueno empieza en
    blancos fuiste
    E|---|---|---|---|---|
    A|---|---|---|---|-0-|
    D|-2-|-4-|---|---|---|
    G|---|---|-2-|-4-|---|
    
    se entra en el riff de guitarra
    pero despues de la bateria
    E|-0(32)--|
    A|--------|
    D|--------|
    G|--------|
    
    Tu mordiste la manzana_y
    E|------|-----|-----|-----|-----|-----|-----|------|
    A|------|-----|-4-4-|-4-4-|-0-0-|-----|-2-2-|-2-2--|x2
    D|--2-2-|-1-1-|-----|-----|-----|-2-2-|-----|------|
    G|------|-----|-----|-----|-----|-----|-----|------|
    
    y ahora estas aqui
    E|---------|-0-0-0-0--|
    A|--4-4--4-|----------|x2
    D|------2--|----------|
    G|---------|----------|
    
    cuando no te
    E|---------|-0-0-0-0-|----|---|---|----------|
    A|--4-4--4-|---------|--0-|---|-2-|-2222222--|
    D|------2--|---------|----|-2-|---|----------|
    G|---------|---------|----|---|---|----------|
    
    (Coro)Perteneciste
    E|--0-000-|-02-2-2-|-2------|----------|
    A|--------|
  • +
    ¡Colabora con nosotros!
    Envíanos tu versión de esta canción

Letra de Pies Descalzos, Sueños Blancos
Perteneciste a una raza antigua
de pies descalzos y de suenos blancos.
Fuiste polvo, polvo eres piensa
que el hierro siempre al calor es blando.
1)
Tu mordiste la manzana
y renunciaste al paraiso
y condenaste a una serpiente
siendo tu el que asi lo quiso.
Por milenios y milenios
permaneciste desnudo
y te enfrentaste a dinosaurios
bajo un techo y sin escudo.
2)
Y ahora estas aqui
queriendo ser feliz,
cuando no te importo
un pepino tu destino.
Perteneciste a una raza antigua
de pies descalzos y de suenos blancos.
Fuiste polvo, polvo eres piensa
que el hierro siempre al calor es blando.
1)
Construiste un mundo exacto
de acabados tan perfectos
cada cosa calculada
en su espacio y a su tiempo.
Yo que soy un caos completo
las entradas, las salidas,
los nombres y las medidas
no me caben en los sesos.
2)
Y ahora estas aqui...
Perteneciste a una raza..
Saludar al vecino
acostarse a una hora
trabajar cada dia
para vivir en la vida
contestar solo aquello
y sentir solo esto
y que Dios nos ampare
de malos pensamientos.
3)
Cumplir con las tareas,
asistir al colegio.
Que diria la familia
si eres un fracasado?
Ponte siempre zapatos,
no hagas ruido en la mesa
una medias veladas y
corbata en las fiestas.
3)
Las mujeres se casan
siempre antes de treinta
si no vestiran santos
y aunque asi no lo quieran
y en la fiesta de quince
es mejor no olvidar
una fina champa~a
y bailar bien el vals A - E - B
y bailar bien el vals. A - B - E




[Pies Descalzos, Sueños Blancos acordes][Pies Descalzos, Sueños Blancos chords]
© LaCuerda.net · notícia legal · privacidade · es · en · pt · contato
DINAMICO