Cifras para Violão e Guitarra » S »Silvio Rodriguez » Angel para un final (Tab)

Angel para un final
Silvio Rodriguez

Letras, cifras e tablaturas para violão, guitarra, piano, ukulele e baixo

  •    FA#m                          MI
    A)Cuentan que cuando un silencio aparecía entre dos
     RE                        LA9            DO#m
    era que pasaba un ángel que les robaba la voz
     FA#m                    RE
    y hubo tal silencio el día que nos tocaba olvidar
     LA9            DO#m        RE                 MI
    que desde entonces yo todavía no termine de callar.
    
    A)Todo empezó en la sorpresa, en un encuentro casual
    pero la noche es traviesa cuando se teje la sal
    sin querer se hace una ofrenda, que pacta con el dolor
    o pasa un ángel, se hace leyenda y se convierte en amor.
    
       LA               FA#m
    B)Ahora comprendo cual era el ángel
     DO#m
    que entre nosotros paso
     RE     LAd    MI       SId  FA#m            MI
    era el mas terrible, el implacable, el mas feroz
    
  • F#m                        D                      C#m
    
    e|--------5-----4-----2-----|--------2-----0-----------|-------------|
    B|----------2-----2-----2---|------3---3-----3---3-3-2-|-5------5----|
    G|------2-----2-----2-----0-|----2-------2-----2-------|-6----6---6--|
    D|----4---------------------|--0-----------------------|----6-------6|
    A|--------------------------|--------------------------|-4-----------|
    E|--2-----------------------|--------------------------|-------------|
    
                           D              E
    
    e|-4-----------|-------2-----|-------0-----------|
    B|-------5-----|-----3---3---|---------0---------|
    G|---6-----6---|---2-------0-|-----1-----1-------|
    D|-----6-----6-|-0-----------|---2---------------|
    A|-------------|-------------|-------------------|
    E|-------------|-------------|-0-----------------|
    
    
    F#m                        D                      C#m
    
  • 1|-----------5--------4--------2-------------
    2|-------2------2--------2--------2----------
    3|----2------------2--------2--------2-------
    4|-------------------------------------------
    5|-------------------------------------------
    6|--2----------------------------------------
    
    Arpegio en Re - Re9
    1|-----------2---------0---------------------
    2|--------3-----3---------3------3---2----0--
    3|-----2-----------2---------2---------------
    4|--0----------------------------------------
    5|-------------------------------------------
    6|-------------------------------------------
    
    Arpegio en LA
    1|---------------0---------------------------
    2|------------2-----2------------------------
    3|---------2---------------------------------
    4|-----2-------------------------------------
    
  • +
    ¡Colabora con nosotros!
    Envíanos tu versión de esta canción
  • Tutorial
    HD
    Como tocar Ángel para un final
    7:24

Letra de Angel para un final
A)Cuentan que cuando un silencio aparecía entre dos
era que pasaba un ángel que les robaba la voz
y hubo tal silencio el día que nos tocaba olvidar
que desde entonces yo todavía no termine de callar.
A)Todo empezó en la sorpresa, en un encuentro casual
pero la noche es traviesa cuando se teje la sal
sin querer se hace una ofrenda, que pacta con el dolor
o pasa un ángel, se hace leyenda y se convierte en amor.
B)Ahora comprendo cual era el ángel
que entre nosotros paso
era el mas terrible, el implacable, el mas feroz
ahora comprendo en total este silencio mortal
ángel que pasa, besa y abraza
ángel para un final.
A)Todo empezó en la sorpresa...
B)Ahora comprendo cual era el ángel...

PD: si alguien necesita canciones con acordes de silvio
que me mande un email




[Angel para un final acordes][Angel para un final chords]
© LaCuerda.net · notícia legal · privacidade · es · en · pt · contato
DINAMICO