Cifras para Violão e Guitarra » S »Silvio Rodriguez » Unicornio (Tab)

Unicornio
Silvio Rodriguez

Letras, cifras e tablaturas para violão, guitarra, piano, ukulele e baixo

  •    DO                        MIm
    A) Mi unicornio azul ayer se me perdió
    REm       SOL/SI      DO
    Pastando lo dejé y desapareció
    MIm                        FA   MIm   REm
    Cualquier información bien la voy a pagar
                     MIm              REm7        SOL7
    Las flores que dejó no me han querido hablar
    
       DO                       MIm         LA7
    B) Mi unicornio azul ayer se me perdió
    REm            SOL/SI  DO
    No sé si se me fue, no sé si se extravió
    MIm                       FA          (SOL-LA7)
    Y yo no tengo más que un unicornio azul
    REm                          DO
    Si alguien sabe de él, le ruego información
    LAm            FAm          LAd-DOd
    Cien mil o un millón yo pagaré
    DO         LAm    RE4/7         SOL    (SOL4)
    
  •    C Em F G
          C                             Em
       Mi unicornio azul ayer se me perdió,
          Dm           G            C
       pastando lo dejé y desapareció.
             Em                               F   A
       Cualquier información bien la voy a pagar,
            Dm                               Em    Dm   G
       las flores que dejó no me han querido ha - bla - ar.
          C                             Em
       Mi unicornio azul ayer se me perdió,
          Dm              G                   C
       no sé si se me fue, no sé si se extravió,
         Em                                 F     A
       y yo no tengo más que un unicornio azul...
          Dm                       C
       si alguien sabe de él, le ruego información,
        Am                         Fm   G#
       cien mil o un millón yo pagaré - é...
          C          Am     Dm              G        C
    
  •     C                      Em                      F
    1º|-----0---0------------|-----0---0-------------|-----------|e
    2º|-1---1---1--1-------1-|-0---0---0--0--------0-|-----------|b
    3º|---0---0---0------0---|---0---0---0------0----|-2---2-----|g
    4º|--------------2-3-----|--------------2-3------|---3---3---|d
    5º|-3--------------------|-----------------------|-------(3)-|a
    6º|----------------------|-0---------------------|-1---------|E
    
        D6/F#       D7/F#   Gsus4           G
    1º|-------------------|-------3-------|-------3-------|e
    2º|---------0---1-----|-1---1-----1---|-----0-----0---|b
    3º|-----2-------------|---0-----0---0-|---0-----0---0-|g
    4º|---0---0---0---(0)-|---------------|---------------|d
    5º|-------------------|---------------|---------------|a
    6º|-2-----------------|-3-------------|-3-------------|E
    
        C                      Em                      F
    1º|-----0---0------------|-----0---0-------------|-----------|e
    2º|-1---1---1--1-------1-|-0---0---0--0--------0-|-----------|b
    3º|---0---0---0------0---|---0---0---0------0----|-2---2-----|g
    
  •     C             Em            F    Am/F#   G4
    6°---------------0-------------1----2-------3--------------------- 2
    5°-3-------------------------------------------------------------- v
    4°---------2h3-----------2h3-------------------------------------- e
    3°---0-0-0----0----0-0-0----0--2------2-------0---0---0---0---0--- c
    2°-1----1------1-0----0------0--1-0----0-1--1-------0-------0----- e
    1°----0-------------0------------1--------------0-------0--------- s
    
      C                   Em       A Dm              F+7      C         
    ---------------------0------0----------------------------------------|
    -3----------------------------0--------------------------3-----------|
    --------------2-----------------0---------------3--------------------|
    ---0-----------0-------0-0--0-2----2---------2----0h2------0---------|
    -1---3-3--1-1---1----0------0-2-------------3--------0h1-1---3-3-1-1-|
    ----0------------0-3----0---0-0-----1-0--0h1----------------0--------|
    
            Em                        F          G      A     Dm     
    |-------0-------------------------1----------3------------------------|
    |---------------------------------------------------0-----------------|
    |-2h3---------------------2h3-----------------------------0-----------|
    
  •              DO                 Em
    |-|-0-----0-----------------------------------0-------------------------
    |-|.-----------1--1----------------0--0-----------0--0-----------------
    |-|----0-----0--------0----------0---------0----0--------0---------0h2--
    |-|----------------------2--2h3-----------------------------2--2h3------
    |-|.3-------------------------------------------------------------------
    |-|-----------------------------------0--------------------------------
    
             FA               Am/F#
    ----------1---1------------------------------------0----------------
    -------1-----------1-------------0--------1-----1----------1--------
    ----2-----------2-----2--------2-------2-----2----------2---------2-
    ----------------------------2-------2----------------2---------2----
    --------------------------------------------------------------------
    -1------------1----------2------------------------------------------
    
           G4                                                            DO
    -------------------3-------------------------3-------------------|-|---
    ---------0h1----------------1-----------0h1---------------1--0--.|-|-1-
    ------0---------0--------0-----------0-----------------0---------|-|---
    
  •   C             Em            F    Am/F#   G4
    |----0-------------0------------1--------------0-------0--------------|
    |-1----1------1-0----0------0--1-0----0-1--1-------0-------0----------|
    |---0-0-0----0----0-0-0----0--2------2-------0---0---0---0---0--------|
    |---------2h3-----------2h3-------------------------------------------|
    |-3-------------------------------------------------------------------|
    |---------------0-------------1----2-------3--------------------------|
    
      C                   Em       A Dm              F+7      C
    |----0------------0-3----0---0-0-----1-0--0h1----------------0--------|
    |-1---3-3--1-1---1----0------0-2-------------3--------0h1-1---3-3-1-1-|
    |---0-----------0-------0-0--0-2----2---------2----0h2------0---------|
    |--------------2-----------------0---------------3--------------------|
    |-3----------------------------0--------------------------3-----------|
    |---------------------0------0----------------------------------------|
    
            Em                        F          G      A     Dm
    |-------------------------------------1-1--------3------0----1-0--0h1-|
    |-----1-0---3-3--1-1--0-0-------0-1--1---1------0------2--------------|
    |----0----0------------------0h2----2--2--2----0------2-----2---------|
    
  • +
    ¡Colabora con nosotros!
    Envíanos tu versión de esta canción

Letra de Unicornio
A) Mi unicornio azul ayer se me perdió
Pastando lo dejé y desapareció
Cualquier información bien la voy a pagar
Las flores que dejó no me han querido hablar
B) Mi unicornio azul ayer se me perdió
No sé si se me fue, no sé si se extravió
Y yo no tengo más que un unicornio azul
Si alguien sabe de él, le ruego información
Cien mil o un millón yo pagaré
Mi unicornio azul ayer se me perdió
Se fue...
A) Mi unicornio y yo hicimos amistad
Un poco con amor, un poco con verdad
Con su cuerno de añil pescaba una canción
Saberla compartir era su vocación.
B) Mi unicornio azul ayer se me perdió
Y puede parecer acaso una obsesión
Pero no tengo más que un unicornio azul
Y aunque tuviera dos yo sólo quiero aquél
Cualquier información la pagaré
Mi unicornio azul se me a perdido ayer
Se fue...
Acordes raros:




[Unicornio acordes][Unicornio chords]
© LaCuerda.net · notícia legal · privacidade · es · en · pt · contato
DINAMICO