Cifras para Violão e Guitarra » S »Silvio Rodriguez » Caballo Místico (Tab)

Caballo Místico
Silvio Rodriguez

Letras, cifras e tablaturas para violão, guitarra, piano, ukulele e baixo

  • Erase un caballo con dos alas que subía que volaba como volaría el amor
    DO      (VI-2)      SOL
    
    Erase un caballo con un cuerno en la nariz que en primavera se hizo buen galopador
          (V-0-2)      DO
    
    Erase un caballo con un hombre y un arquero todo junto con un solo corazón
          RE
    
    
    Erase que un beso era el olimpo, érase que abril era a las cinco
    FA      RE      FA      RE
    
    y las patas del animal místico se enredaban en el aire con su galope magnífico
    FA      DO      SOL      LAm  (LAm/SOL)
    
    y era que te había conocido con tu nombre que volaba con tu pequeño vestido.
    FA      DO      SOL      LAm  (LAm/SOL)
    
    (FA - DO - SOL - DO)...
  •                            C
    e-----------0------------0----------0-------------0--
    b-------2------------2-----------2-----------2-------
    g---0-----0-----0------0-----0-----0-----0------0----
    d-----2------------2-----------2-----------2---------
    a--3----------3------------3----------3--------------
    E----------------------------------------------------
    
    Aqui ya se empieza a cantar:
                                         C
    e--------0--------------0-----------0-----------0---------0--------0-
    b-----2------------2-------------2----------2----------2--------2----
    g--0----0-----0-------0------0-----0----0-----0-----0----0---0----0--
    d---2-----------2--------------2----------2-----------2--------2-----
    a-3---------3--------------3----------3-----------3--------3---------
    E--------------------------------------------------------------------
    Érase un caballo con dos alas, que subía, que volaba como volaría el
    
                            G con d6 ( cuerda 2a en 3er traste)
    e--------------------------------------------------------------------
    
  • +
    ¡Colabora con nosotros!
    Envíanos tu versión de esta canción

Letra de Caballo Místico
Erase un caballo con un cuerno en la nariz que en primavera se hizo buen galopador
Erase un caballo con un hombre y un arquero todo junto con un solo corazón
Erase que un beso era el olimpo, érase que abril era a las cinco
y las patas del animal místico se enredaban en el aire con su galope magnífico
y era que te había conocido con tu nombre que volaba con tu pequeño vestido.




[Caballo Místico acordes][Caballo Místico chords]
© LaCuerda.net · notícia legal · privacidade · es · en · pt · contato
DINAMICO