Cifras para Violão e Guitarra » S »Soledad Pastorutti » A Don Ata (Tab)

A Don Ata
Soledad Pastorutti

Letras, cifras e tablaturas para violão, guitarra, piano, ukulele e baixo

  • -----------------
    
    
    E|------8---8---8/11-11-10---10---10---10/13-13-11----11----11----11/15-
    B|--6/8---8---8------------8----8----8-------------11----11----11-------
    G|----------------------------------------------------------------------
    D|----------------------------------------------------------------------
    A|----------------------------------------------------------------------
    E|----------------------------------------------------------------------
    
    
    E|--16-15-13-11----
    B|-----------------
    G|-----------------
    D|-----------------
    A|-----------------
    E|-----------------
    
    
        Cm
    
  •     LAm
    Por el camino del indio
                       MI7
    el anima de Don Ata.
    En su Alazan montado 
                       FA
    lo vio pasar la vidala.
    El aire del cerro, 
       SI7           MI7
    las flores del valle.
      SOL                DO
    Se le enriedan en el alma
           MI7         LAm
    ay, ay, ay  a Don Ata.
    
    Una Luna Tucumana
    alumbra piedra y camino
    y junto a la Pobrecita
    lo lloran montes y rios
    por Taffi del Valle, 
    
  • Hola!! quiero mandar esta intro que esta muy buena
    
    E:---8-8-8-8/12-----8-8-8-8/12----8-8-8-8/12--12--10--------------
    B:--9-9-9----------9-9-9---------9-9-9--------------12--10-------
    G:---------------------------------------------------------------
    D:---------------------------------------------------------------
    A:---------------------------------------------------------------
    E:---------------------------------------------------------------
    
    
    E:---8-8-8/12-12-10---8-8-8-8/12-12-10---8-8-8-8/12--12-10-------
    B:--9-9-9------------9-9-9--------------9-9-9--------------12-10-
    G:-----------------------------------------------------------------
    D:-----------------------------------------------------------------
    A:-----------------------------------------------------------------
    E:-----------------------------------------------------------------
  • Am
    Por el camino del Indio
    Mi mi mi mi mi mi mi mi
                           E7
    Vengo a buscarlo a Don Ata
    Mi mi mi mi  mi mi fa re
    
    En su alazán montado
    Do# re re do# re do# re re
                          F
    Lo vió pasar la viadala
    Re re re re re re mi do
    
    El aire del cerro
    do re do do re do
         B7          E7
    Las flores del valle
    Do si la la do si
          G             C
    Se le enredan en el alma
    Do do do re mi re re do re mi
               E7      Am
    ay, ay, ay a Don Ata.
    Re mi re do
    
    Una luna tucumana
    alumbra piedra y camino
    y junto a la pobrecita
    lo lloran montes y ríos
    por Tafí del Valle
    campos de Acherales
    también por la Bomba y Lules
    igual por Amaicha.
    
    La Criollita Santiagueña
    para aliviarlo del frío
    le teje un poncho pampa
    al payador perseguido
    allá por Barrancas
    y por Salavina
    La Humilde con La Olvidada
    le buscan guarida.
    
    Est.
    Hay anda Don Atahulpa
    por los caminos del mundo
    con una copla por danza,
    marcando los cuatro rumbos
    que Dios lo bendiga,
    lo tenga en la gloria
    por tantos 
  • +
    ¡Colabora con nosotros!
    Envíanos tu versión de esta canción

Letra de A Don Ata
Por el camino del indio
el anima de Don Ata.
En su Alazan montado
lo vio pasar la vidala.
El aire del cerro,
las flores del valle.
Se le enriedan en el alma
ay, ay, ay a Don Ata.
Una Luna Tucumana
alumbra piedra y camino
y junto a la Pobrecita
lo lloran montes y rios
por Taffi del Valle,
campos de Acheral
tambien por la Bomba l' Lules,
igual por Amaicha.
para aliviarlo del frio
le teje un poncho pampa
al Payador Perseguido.
Haya por Barranca,
y por Salavina
La Humilde con la olvidada
le buscan guarida.
Ahi anda Don Atahualpa
por los caminos del mundo.
Con una copla por lanza
marcando los cuatro rumbos.
Que Dios lo bendiga,
lo tenga en la gloria
por tanto recuerdos lindos
y por su memoria.
II
Un Arriero solitario
paso por Altamirano
con un silbo nostalgioso
en busca de sus Hermanos
arriando su pena
por no encontrarlos
se fue yendo despacito
del pago entrerriano.
Se viene clareando el dia
por el Cerro Colorado
y en las espinas del chulqui
se estrella un rayo cortado.
Despierta La Añera,
con la Guanchaqueña
San Francisco del Chaniar,
tambien Santa Elena.
Un aire de Buenos Aires
le dio su canto del viento
Y se durmio en una huella
en un estilo sin tiempo
Alla en Pergamino,
tal vez Santa Rosa
lo llora toda la Pampa
en una bordona.
Ahi anda Don Atahualpa
por los caminos del mundo
con una copla por lanza
marcando los cuatro rumbos.
Que Dios lo bendiga,
lo tenga en la gloria
por tantos recuerdos
lindos y por su memoria.
Soledad y Natalia Pastorutti son las interpretes la canción la escribió y
le puso la música Mario Alvarez Quiroga.
Cualquier sugerencia o corrección no duden en escribir
a leandro@islanet.com.ar !!! :)




[A Don Ata acordes][A Don Ata chords]
© LaCuerda.net · notícia legal · privacidade · es · en · pt · contato
DINAMICO