Cifras para Violão e Guitarra » S »Soledad Pastorutti » Que nadie sepa mi sufrir (Tab)

Que nadie sepa mi sufrir
Soledad Pastorutti

Letras, cifras e tablaturas para violão, guitarra, piano, ukulele e baixo

  •         MIm             MI7         LAm
    No te asombres si te digo lo que fuiste
           RE7                  SOL
    un ingrato con mi pobre corazón,
                SI                      MIm
    porque el fuego de tus lindos ojos negros
          DO                     SI 
    alumbraron el camino de otro amor.
          MIm           MI7         LAm
    Y pensar que te adoraba tiernamente [---Estribillo
         RE7                       SOL
    que a tu lado como nunca me sentí,
             SI                   MIm
    y por esas cosas raras de la vida,
            DO         SI       MIm
    sin el beso de tu boca yo me vi.
    
    
                  RE7
    Amor de mis amores!
    
  • jlve666@hotmail.com
    santa cruz frailes
    hola pingoman otra pingo aventura
    
    hala soi yo otra vez y les mando este punteo es halgo medio movido
    pero suena bien para todos los que gusten de soledad
    ah y saludos pa mi gran amor jimenita
    
    E--------------7-------7--------7--------7---------------------------------------
    B------------------------------------------10-8---------------------------------
    G----------------------------------------------------------------------------
    D--9-9-8-9-8-9---8h910---8h9h10---8h9h10------------------------------------------------------------
    A----------------------------------------------------------------------------
    E----------------------------------------------------------------------------
    
    E------------7---------7--------7----------------------------------------
    B----------------------------------------10-8----------------------------
    G------------------------------------------------------------------------
    D--9-8-9-8-9---8h9h10---8h9h
  •    MIm          SI7                         MIm
    
    E-------------8-------8--------8--------8------------
    B------------------------------------------11-9------
    G----------------------------------------------------
    D--10-10-9-10----8h910---8h9h10---8h9h10-------------
    A----------------------------------------------------
    E----------------------------------------------------
    
                    SI7                          MIm
    
    E---------------8---------8--------8-------8---------
    B--------------------------------------------11-9----
    G----------------------------------------------------
    D--10-9-10-9-10----8h9h10---8h9h10---8h9h10----------
    A----------------------------------------------------
    E----------------------------------------------------
    
          MI7                            LAm
    
    
  • Em                   E           Am
    No te asombres si te digo lo que fuiste,
    B B E D# E F# G F# E D# C
          D                     G
    una ingrata con mi pobre coazón,
    G F# A G G F# A D E D D
    A A# B                             Em
    porque el fuego de tus lindos ojos negros
    B B D# D# E F# G F# E D# E
             C    B             Em
    alumbraron el camino de otro amor.
    E E E E E E E E F# G F#
    
    
    Em                   E        Am
    y pensar que te adoraba tiernamente,
             D                    G
    que a tu lado como nunca me sentí,
    A A# B                      Em
    y por esas cosas raras de la vida
           C         B          Em
    sin el beso de tu boca yo me ví.
    E E E E E E D# D# G F# E
    
    
                D
    Amor de mis amores, vida mía,
    D D D D D F# E E D G F#
          G
    que me hiciste que no puedo
    E D G E E D G E E D F# E E D F# E D C B
       D                    G
    consolarme sin oderte contemplar,
                  B                       Em
    ya que pagaste mal a mi cariño tan sincero,
    B B B B B D# D# E F# G F
  • +
    ¡Colabora con nosotros!
    Envíanos tu versión de esta canción

Letra de Que nadie sepa mi sufrir
No te asombres si te digo lo que fuiste
un ingrato con mi pobre corazón,
porque el fuego de tus lindos ojos negros
alumbraron el camino de otro amor.
que a tu lado como nunca me sentí,
y por esas cosas raras de la vida,
sin el beso de tu boca yo me vi.
Amor de mis amores!
Vida mía...
que me hiciste
que no puedo
consolarme
sin poderte contemplar?
ya que pagaste mal a mi cariño tan sincero,
lo que conseguirás
que no te nombre nunca más...
Amor de mis amores
de quererme,
no hay cuidado
que la gente
de esto no se enterará...
qué gano con decir que un gran amor cambió mi suerte?
se burlarán de mí;




[Que nadie sepa mi sufrir acordes][Que nadie sepa mi sufrir chords]
© LaCuerda.net · notícia legal · privacidade · es · en · pt · contato
DINAMICO