Cifras para Violão e Guitarra » B »Bersuit Vergarabat » Al olor del hogar (Tab)

Al olor del hogar
Bersuit Vergarabat

Letras, cifras e tablaturas para violão, guitarra, piano, ukulele e baixo

  •     SOL                    SIm7 
    Mi casa era un abrazo con aromas, 
    LAm7                       SOL 
    Afuera el sol oleaba en adoquines, 
        LAm7                           SIm7 
    Por suerte había chapas que, en la siesta, 
    DO           LAm7            RE7 
    Hacían que llover no fuera triste ... 
        SOL                    SIm7 
    Y hablo de mi casa nunca nuestra, 
    LAm7                       SOL 
    Mudándonos de barrio sin opciones, 
        LAm7                     SIm7 
    A la hora de movernos que ¡increíble 
    DO           LAm7            RE7 
    Imaginar un mundo en los camiones! ... 
    
      
    
    SOL             SIm7          MIm 
    
  • INTRO: RE7
           SOL - SI7 - MIm   SIm - MI7 - LAm
           DO - RE - MIbdim   LAm - DO/SOL - RE7  RE7sus4 - RE7
    
    
         SOL                     SIm
    1)Mi casa era un abrazo con aromas
     LAm                       SOLinv
    afuera el mar oleaba en adoquines
        LAm                           SIm
    por suerte había chapas que en la siesta
      DO                       RE7   RE7sus4-RE7
    hacían que llover no fuera triste
    
         SOL                     SIm
    1)Y hablo de mi casa, nunca nuestra
     LAm                       SOLinv
    mudándonos de barrio sin opciones
        LAm                           SIm
    a la hora de movernos que increible
    
  •     Intro
    La intro es sencilla dentro de todo, pero igual
    dejé dos opciones, la primera es mas sencilla.
    
             Opción 1
    
    --12--8--8--10--12--8--8-|-12--8--8--10--12--8--8-|-------------|
    -------------------------|------------------------|-12-10-12p8--|
    -------------------------|------------------------|-------------|
    -------------------------|------------------------|-------------|
    -------------------------|------------------------|-------------|
    -------------------------|------------------------|-------------|
    
    
    -8-7-10p8-|-12-10-8---------------|-12-10-8------------------|
    ----------|---------12-10-8-7-8-7-|---------12-10-8----8-10--|
    ----------|-----------------------|-----------------11-------|
    ----------|-----------------------|--------------------------|
    ----------|-----------------------|--------------------------|
    ----------|-----------------------|--------------------------|
    
    
    ----------|
    ---7---8--|
    -7---7----|
    ----------|
    ----------|
    ----------|
    
          Opción 2
    En rea
  • B//----------------------------------------------/--------------------------------------------//
    G//----------------------------------------------/--------------------------------------------//
    D//----------------------------------------------/--------------------------------------------//
    A//----------------------------------------------/--------------------------------------------//
    E//----------------------------------------------/--------------------------------------------//
     
     
    e//--------12---10---8----7--8--7-----------/---5----7--------10---------------------//
    B//----------------------------------------------/--------------------------------------------//
    G//----------------------------------------------/--------------------------------------------//
    D//----------------------------------------------/--------------------------------------------//
    A//----------------------------------------------/--------------------------------------------//
    E//----------------------------------------------/--------------------------------------------//
      
    e//--------14---12---10----8--10-------8----7-/-------8--------12-----------------------------//
    B//----------------------------------------------/--------------------------------------------//
    G//----------------------------------------------/--------------------------------------------//
    D//----------------------------------------------/--------------------------------------------//
    A//----------------------------------------------/--------------------------------------------//
    E//----------------------------------------------/--------------------------------------------//
    
  • Armónica de Sol Mayor (G)
    
    
    
    Intro: [  6  (5)  (5)  6  (6)  ] x 2
    
               5  (4)  4          5  6  (5)
               (6) 6 (5) 5 (5) 5 (4) 5 6
               7 (6) 6 (5) 6 (5) 5 (5) (6)  
                
               (4) (5) (4)
    
    
    Final:  5  (4)  4          5  6  (5)
               (6) 6 (5) 5 (5) 5 (4) 5 6
               7 (6) 6 (5) 6 (5) 5 (5) (6)  
    
               5  (4)  4          5  6  (5)
               (6) 6 (5) 5 (5) 5 (4) 5 6
               7 (6) 6 (5) 6 (5) 5 (5) (6)  
    
               (4) (5)  4 larga
    
    
    
    
    Espero q les sirva loco.
    Cualquier cosa escriban, y aguante la bersuit carajo!!!!!!!!!!!!
    
    Ðiþu
  • +
    ¡Colabora con nosotros!
    Envíanos tu versión de esta canción

Letra de Al olor del hogar
Mi casa era un abrazo con aromas,
Afuera el sol oleaba en adoquines,
Por suerte había chapas que, en la siesta,
Hacían que llover no fuera triste ...
Y hablo de mi casa nunca nuestra,
Mudándonos de barrio sin opciones,
A la hora de movernos que ¡increíble
Imaginar un mundo en los camiones! ...

La casa ningún living de una pieza,
De los despertadores tan temidos,
Soñando que, tal vez, quizás, no suenen
Para ir a mi otra escuela de bandidos...
Jamás podré elogiar a mi pobreza,
Tan solo es el cristal de mi pasado,
Que suena, como copa, en esta noche
Y abraza con su vino destapado...

Mi hermano heredándome la pilcha,
Aquella que vistió también a un primo,
Así fue que aprendimos el secreto
De compartir los parches y el camino...
El carnaval y el tango fueron cuna,
Mi vieja me canto ?duerme negrito?,
Y en mi segundo hogar, el gallinero,
Mi viejo me soñó como Angelito

La casa ningún living de una pieza,
De los despertadores tan temidos,
Soñando que, tal vez, quizás, no suenen
Para ir a mi otra escuela de bandidos...
Jamás podré elogiar a mi pobreza,
Tan solo es el cristal de mi pasado,
Que suena, como copa, en esta noche
Y abraza con su vino destapado...




[Al olor del hogar acordes][Al olor del hogar chords]
© LaCuerda.net · notícia legal · privacidade · es · en · pt · contato
DINAMICO