Cifras para Violão e Guitarra » B »Bersuit Vergarabat » La Soledad (Tab)

La Soledad
Bersuit Vergarabat

Letras, cifras e tablaturas para violão, guitarra, piano, ukulele e baixo

  •      LAm
    Esperaria que no te asuste
             MIm
    este instante de sinceridad
           SOL
    mi corazon,
                 MI7
    vomita su verdad
           LAm
    Es que hay una guerra entre dos
            MIm
    por ocupar el mismo lugar
          SOL
    la urgencia
             MI7
    o la soledad
          LAm                    FA
    La soledad fue tan sombria que..
                     DO
    no te dejó encontrar
    
  •        Am
    Esperaría que no te asuste
             Em
    este instante de sinceridad;
            G                M
    mi corazón vomita su verdad.
            Am
    Es que hay una guerra entre dos
            Em
    por ocupar el mismo lugar;
          G
    la urgencia
              E
    o la soledad.
    
    AHORA MIENTRAS QUE CANTA ARPEGIA ESTOS ACORDES DE ESTA MANERA
          Am               F/A               C                 E
    1|-----------|    1|-----------|    1|-----------|    1|-----------|
    2|------1----|    2|------1----|    2|------1----|    2|------0----|
    3|-----2-----|    3|-----2-----|    3|-----0-----|    3|-----1-----|
    
  • Intro  (LAm - FA - MI7)  4 veces
    
    
          LAm
    Esperaria que no te asuste
        DO
    este instante de sinceridad
           SOL
    mi corazon
                  MI7
    vomita su verdad
    
    
            LAm
    Es que hay una guerra entre dos
        DO
    por ocupar el mismo lugar
          SOL
    la urgencia
             MI7
    
  •        B--------------------------
           G----------------2-------1-   4 veces
           D-------0--0-2v-3-3-3b2-2-2
           A-0----3-------------------
           E--------------------------
       Am
      esperaria que  no te asustes
            Em
      este instante de sinceridad      en esta primer estroa
          G                 E7         tira los tonos(cuerda por cuerda)
      mi corazon vomita su verdad
       Am
      es que hay una guerrra enter dos
            Em
      por ocupar el mismo lugar
          G           E7
      la urgencia o la soledad
    
       Am
      la soledad fue tan sombria
    
  • B//---------------------------------------------------------------------//           
    G//---------------------------------2--------------1------------------//
    D//------------------------------3-----3------2-------2-------------//                          x  3
    A//----0-----3---5h---7--------------------------------------------//               
    E//-------------------------------------------------------------------//               
    
     e//----------------------------------------------------------------------//         
    B//---------------------------------------------------------------------//           
    G//---------------------------------2--------------------------------//
    D//------------------------------3-----3------2-----------------------//                          
    A//----0-----3---5h---7--------------------------------------------//               
    E//-------------------------------------------------------------------//          
    
    
    (*) : 
             
    e//--------------------------------------------------------------------------------------------------------//    
    B//---------------------------------------------------------------------------------4-----5----7h---9--//        
    G//------------------------------------------------------------------------------------------------------//
    D//----------------------------------------------3--------5-------7h----9----------------------------//      x 2
    
  • +
    ¡Colabora con nosotros!
    Envíanos tu versión de esta canción

Letra de La Soledad
Esperaria que no te asuste
este instante de sinceridad
mi corazon
vomita su verdad
Es que hay una guerra entre dos
por ocupar el mismo lugar
la urgencia
o la soledad
La soledad fue tan sombria que
no te dejo encontrar
tu naturaleza divina
la urgencia gano esta vez
dispuesta a penetrarteeeeee
prepotente y altiva

por la noche la soledad desespera
por las noches la soledad desespera
y por la noche la soledad desespera
por las noches la soledad desespera
espera por ti
espera por el
espera por mi
tambien por aquel
Mis condolencias sujetan su alma
a una brutal represion
esperando apasiguarse
o confia en el paso del tiempo
como otra solucion
para encontrar la calma
Pero te pone loco en las noches
rogando entrar
en los confines mas oscuros
despues te arrodillas
ante el amor maternal
suplicando ternura
por la noche la soledad desespera
por la noche la soledad desespera
que por la noche la soledad desespera
por la noche la soledad desespera
esperan por ti
esperan por el
esperan por mi
tambien por aquel
esperan por ti
por el
esperan por mi
tambien por aquel
Y que hace este angelito ahora a las 6 de la mañana
subida al mastil de este naufragio
al verse alzando las copas foragidas
viene un cielo de enfermeras
para lamer sin asco las heridas de amor
(Por la noches la soledad desespera
a ver si viene del cielo
por la noches la soledad desespera
una enfermera del amor) Repiteee




[La Soledad acordes][La Soledad chords]
© LaCuerda.net · notícia legal · privacidade · es · en · pt · contato
DINAMICO