Cifras para Violão e Guitarra » B »Bersuit Vergarabat » Mi caramelo (Tab)

Mi caramelo
Bersuit Vergarabat

Letras, cifras e tablaturas para violão, guitarra, piano, ukulele e baixo

  • Intro:  C-Bm-Am-G-Bm C#dim C/A x2
            C-Bm-Am-G-Bm C#dim C/A Dsus4 D G
    
    
                     G  G/F        Em    Ebaug
    Que linda que estás,  sos un caramelo
        Em           A7        Am7   Dsus D
    te veo en el recreo y me vuelvo loco,
               G          C/A  Bm   C        Cm
    todas las cosas que me gustan, tienen tu cara
         Bm        A#m         C/A          Dsus D
    y espero los asaltos, así juego a la botellita
          G G/F Em Ebaug G Dsus4
    con vos,         mi bomboncito.
    
    
             G             C/A   Bm     C       Cm
    Que excitante que estás, tendrías que saberlo
         Bm         A#m          C/A    Dsus D
    esa cola es la manzana mas buscada,
    
  •                SOL           DO
    Que linda que estás, sos un caramelo
       MIm        LA7        LAm     RE
    te veo en el recreo y me vuelvo loco,
        SOL                         DO
    todas las cosas que me gustan, tienen tu cara
       MIm          LA7         LAm         RE          SOL         DO
    y espero los asaltos, así juego a la botellita con vos,
    DO      MIm
    mi bomboncito.
    
    (1)
    Que excitante que estás, tendrías que saberlo
    esa cola es la manzana mas buscada,
    y esos senos el alimento de mi creación,
    quisiera arrancarte un día y morirme en un telo con vos...
    o quizás en un auto.
    
    (2)
    SOL                      DO
    
  • e|-0---------------|-------------0---|-0---------------|-------------3---|>
    B|---3-1-0-3-----3-|-2---2---1-------|---3-1-0-3-----3-|-2-----2-1-----1-|>
    G|*------------0---|---0---0---0---0*|-------------0---|-----0-----0-----|>
    D|*----------0-----|-1--------------*|-----------0-----|-1-1-------------|>
    A|-3-2-0---2-------|---------0-------|-3-2-0---2-------|---------0-------|>
    E|-------3---------|-----------------|-------3---------|-----------------|>
       1 + 2 + 3 + 4 +   1 + 2 + 3 + 4 +   1 + 2 + 3 + 4 +   1 + 2 + 3 + 4 +
    
    
    e|-3---3---3---3---|-2---------------||
    B|---1---1-------1-|-----1-----------||
    G|-----------2-----|---2-------------||
    D|---------0-------|-0---------------||
    A|(0)--------------|-----------------||
    E|-----------------|-----------------||
       1 + 2 + 3 + 4 +   1 + 2 + 3 + 4 +
    
    
    
    
    
  •                  G  G/F      G/E     G/D#
    Que linda que estás,   sos un caramelo
        Em           A7       C*       D7
    te veo en el recreo y me vuelvo loco,
               G              Am7  G/B     C1        Cm
    todas las cosas que me gustan,   tienen tu cara
         G           Gm/5-     Am                D7
    y espero los asaltos, así juego a la botellita
         G  G/F  G/E G/D#
    con vos,         mi bomboncito.
    
    G Dadd11
    
             G            Am7     G/B    C1       Cm
    Que excitante que estás, tendrías que saberlo
         G/B             Gm/5-      Am7  D7
    esa cola es la manzana mas buscada,
           G     Am7   G/B          C1    Cm
    y esos senos el alimento de mi creación,
       G/B                  Gm/5-  Am7          D7
    
  • LA Bersuit Vergarabat.
    
    
    INTRO:
    
    
    E--0----------|---------|-----------|------0----------|
    B----3-1-0-3--|------3--|--2-----2--|--1--------------|
    G-------------|----0----|------0----|----0--(0)-------|
    D-------------|---------|--1-1------|-----------------|
    A--3-2-0---2--|--2------|-----------|--0--------------|
    e--------3----|---------|-----------|-----------------|
    
    E--0----------|---------|-----------|------0----------|
    B----3-1-0-3--|------3--|--2---2----|--1--------------|
    G-------------|----0----|----0---0--|----0--(0)-------|
    D-------------|---------|--1--------|-----------------|
    A--3-2-0---2--|--2------|-----------|--0--------------|
    e--------3----|---------|-----------|-----------------|
    
    
  • INTRO
    
    e|-----------------|-------------0---|
    B|-5-3-1-0-3-----3-|-2---2---1-------|
    G|*------------0---|---0---0---0---0*|
    D|*----------0-----|-1--------------*|
    A|-3-2-0---2-------|---------0-------|
    E|-------3---------|-----------------|
       1 + 2 + 3 + 4 +   1 + 2 + 3 + 4 +
    
    e -----------------|-------------3---|>
    B -5-3-1-0-3-----3-|-2-----2-1-----1-|>
    G -------------0---|-----0-----0-----|>
    D -----------0-----|-1-1-------------|>
    A -3-2-0---2-------|---------0-------|>
    E -------3---------|-----------------|>
       1 + 2 + 3 + 4 +   1 + 2 + 3 + 4 +
    
    e|-3---3---3---3---|-2-----2---------||
    B|---1---1-------1-|-----1-----------||
    G|-----------2-----|---2-------------||
    D|---------0-------|-0---------------||
    A|(0)--------------|-----------------||
    E|-----------------|-----------------||
       1 + 2 + 3 + 4 +   1 + 2 + 3 + 4 +
    
    
    Verso 1:
    
    e|-----------------|-----------------|
    B|-----0-------0---|-----0-------0---|
    G|---0---0---0---0-|---0---0---0---0-|
    D|---------3-------
  • E|-0---------------------------0---0---------------------------0---|
    B|---3-1-0-3-----3-2---2---1-----1---3-1-0-3-----3-2---2---1-----1-|
    G|-------------0-----0---0---0-----------------0-----0---0---0-----|
    D|-----------0-----1-------------------------0-----1---------------|
    A|-3-2-0---2---------------0-------3-2-0---2---------------0-------|
    E|-------3-------------------------------3-------------------------|
    
    E|-0---------------------------3---3---3---3---3---2---------------|
    B|---3-1-0-3-----3-2---2---1-----1---1---1---1---1-----1-----------|
    G|-------------0-----0---0---0-----------------------2-------------|
    D|-----------0-----1-----------------------0-------0---------------|
    A|-3-2-0---2---------------0---------------------------------------|
    E|-------3---------------------------------------------------------|
    
    que linda que estas, sos un caramelo
    te veo en el recreo y me vuelvo loco
    E|-------------------------------------------------3---3---3---2---|
    B|-----0-------0-------0-------0---------0-2-----2---1---1---------|
    G|-------0---0---0---0---0---0---0-----0-------0-------------2---2-|
    D|---0-----3-------2-------1-------2-2-------2-------------0---0---|
    
  •                         ( A )
          todas las cosas que me gustan, tienen tu cara
                            ( B )                        ( A )
          y espero los asaltos, así juego a la botellita con vos,
          
          mi bomboncito.
    
    Que excitante que estás, tendrías que saberlo
    
          1-----------------------------------------+
          2---0-----0------1---3----5-----5--4----4-+ ( C )
          3------0-----0----0---0-----0--------0----+
          4-----------------------------------------+
          5----------------0---2-2--3----3---3---3--+
          6---3-----3-------------------------------+
    
    esa cola es la manzana mas buscada,
    
          1---------------------------------+
          2--3----3--2----2--1----3----3----+ ( D )
    
  • BERSUIT VERGARABAT
    MI CARAMELO
    
    
    ESTROFA 1
    
    
    QUE LINDA QUE ESTÁS, SOS  UN   CARAMELO
    SI LA  SOL LA   SOL, SOL SOL MI FA#SOL SOL
    
    TE VEO  EN  EL RECREO, Y  ME VUELVO  LOCO
    SOL DO SI SI LA LA SOL,FA# SOL LA SI LA LA
    
    TODAS LAS COSAS QUE ME GUSTAN, TIENEN TU CARA
    RE RE MI SOL LA LA  LA LA SOL, SI DO RE DO DO
    
    Y   ESPERO  LOS   ASALTOS, ASÍ JUEGO A LA BOTELLITA CON VOS,
    SOL SI DO DO SI SI LA FA#, SOL LA SI SI SI SI SI LA, MI SOL
    
    MI BOMBONCITO
    DO SI LA LASI
    
    
    ESTROFA 2
    
    
    QUE EXCITANTE QUE ESTÁS, TENDRÍAS   QUE SABERLO
    DO  SI SOLSOL   LA SOL,  SOL MISOL MI SOL LA SOL
    
    ESA  COLA ES LA MANZANA  MAS BUSCADA,
    SOL SI DO DO SI SI LA LA SI SI LA LA
    
    Y ESOS SENOS, EL   ALIMENTO   DE  MI CREACIÓN
    DO SI SOL LA, SOL SOLSOLSOLSOL LA SI  DO REDO
    
    QUISIERA ARRANCARTE UN DÍA. Y   MORIRME  EN   UN TELO   CON VOS...
    SOLSI SI SI SI LA   LA SOL, FA# SOL LA SI SI LA LA SOL, MI SOL
    
    O   QUIZÁS  EN UN  AUTO
    SOL SOL SOL LA SOL LA SI
    
    
    ESTROFA 3
    
    
    HAN  PASADO  CINCO  AÑOS, ASUMISTE   LAS  COSAS
    SI LA SOL L
  • +
    ¡Colabora con nosotros!
    Envíanos tu versión de esta canción
  • Tutorial
    Mi Caramelo como tocar. TUTORIAL
    5:54
  • Tutorial
    mi caramelo como tocar TUTORIAL (video 2)
    5:20

Letra de Mi caramelo
Que linda que estás, sos un caramelo
te veo en el recreo y me vuelvo loco,
todas las cosas que me gustan, tienen tu cara
y espero los asaltos, así juego a la botellita
con vos, mi bomboncito.
G Dadd11
Que excitante que estás, tendrías que saberlo
esa cola es la manzana mas buscada,
y esos senos el alimento de mi creación,
quisiera arrancarte un día y morirme en un telo
con vos... o quizás en un auto.
Han pasado cinco años, asumiste las cosas
hace tiempo que estoy buscando mi verdadero yo,
hay una especie de simbiosis, lo dijo mi psicóloga
haría bien a la terapia o.. alejarme un tiempo...
unos setenta años.
Como estás querida tengo esposa e hijos
de ves en cuando hablo con ella y hasta hago el amor,
no es que quiera molestarte, pero me es imprescindible
sentarme en un café, y soñar un poco...
y tal vez amarnos.
Y ha pasado mi hora, quién robo mis años,
cambio a toda esta familia por un segundo con vos,
si te veo ahora, aunque termine en un hospicio,
tomo una botella...y juego a la botellita con vos.




[Mi caramelo acordes][Mi caramelo chords]
© LaCuerda.net · notícia legal · privacidade · es · en · pt · contato
DINAMICO