Cifras para Violão e Guitarra » B »Bersuit Vergarabat » Un pacto para vivir (Tab)

Un pacto para vivir
Bersuit Vergarabat

Letras, cifras e tablaturas para violão, guitarra, piano, ukulele e baixo

  • SOL (x12)
    
    SOL
    Un pacto para vivir, odiándonos sol a sol
                RE*
    Revolviendo más
              MIm        DO
    En los restos, de un amor
    RE**              DO   RE             MIm*
    Con un camino recto, a la desesperación
    SIm               SI7        SOL        DO SOL
    Desenlace en un cuento de terror
    SOL                                              RE***
    6 años así, escapando a un mismo lugar con mi fantasía
                   MIm          DO
    Buscando otro cuerpo, otra voz
    RE              DO         RE             MIm*
    Fui consumiendo infiernos, para salir de vos
    SIm            SI7  (Rasgueo) SOL    DO SOL    SOL7
    Intoxicado, loco y, sin humor
    
  • intro: G*
    
    G*
    Un pacto para vivir, odiándonos Sol a Sol
               D/Fa#        Em             C
    Revolviendo más, en los restos de un amor,
     D              C        D            Em
    Con un camino recto, a la desesperación
     Bm                 B7         G*
    desde el hacer un cuento de terror.
    
    G*
    Seis años así escalpando a un mismo lugar
                 D/Fa#                Em          C
    Con mi fantasías buscando otro cuerpo, otra voz,
     D              C         D              Em
    Fui consumiendo infiernos para salir de voz,
    Bm            B7         G
    Intoxicado loco y sin humor.
    
    
  • G                D/F#           Em           C
    |-----------    |-----------   |---------   |-----------
    |--------0--    |--------3--   |------0--   |--------1--
    |------0----    |------2----   |-----0---   |------0----
    |----0------    |----0------   |----2----   |----2------
    |-----------    |-----------   |---------   |--3--------
    |--3--------    |--2--------   |--0------   |-----------
    
    D4               Bm             B7
    |-----------    |-----------   |-----------
    |--------3--    |--------3--   |--------4--
    |------0----    |------4----   |------2----
    |----4------    |----4------   |----4------
    |--5--------    |--2--------   |--2--------
    |-----------    |-----------   |-----------
    
    
    
    Introducción: G
    
    
  •    SOL/G       SIm7/Bm7    MIm/Em    DO/C    Reinv/Dinv
    1|------------|---------|---------|---------|---------|
    2|-------a--0-|-------0-|-------0-|-------1-|-------3-|
    3|-----m--0---|-----2---|-----0---|-----0---|-----2---|
    4|---i--0-----|---0-----|---2-----|---2-----|---0-----|
    5|------------|---------|---------|-3-------|---------|
    6|-P--3-------|-2-------|-0-------|---------|-2-------|
    
    
       DO/C        RE/D     MIm/Em    SI7/B7    DO9/C9   SOL/G
    1|---------|-------2-|-------0-|---------|---------|---------|
    2|-------1-|-----3---|-----0---|-------0-|-------0-|-------0-|
    3|-----0---|---2-----|---0-----|-----2---|-----0---|-----0---|
    4|---2-----|-0-------|-2-------|---1-----|---2-----|---0-----|
    5|-3-------|---------|---------|-2-------|-3-------|---------|
    6|---------|---------|---------|---------|---------|-3-------|
    
    ARPEGIOS DE INTRO Y VERSOS ( I y II )
     : cada fórmula de arpegio equivale a 1 rasguido
    
    
  • +
    ¡Colabora con nosotros!
    Envíanos tu versión de esta canción
  • Tutorial
    HD
    Como Tocar Un Pacto - Bersuit Vergarabat [Tutorial Guitarra]
    5:20
  • Tutorial
    Como tocar Un pacto para vivir de bersuit!
    4:10
  • Tutorial
    Como tocar "Un Pacto para vivir " de la Bersuit
    4:06

Letra de Un pacto para vivir
Un pacto para vivir, odiándonos sol a sol
Revolviendo más
En los restos, de un amor
Con un camino recto, a la desesperación
Desenlace en un cuento de terror
6 años así, escapando a un mismo lugar con mi fantasía
Buscando otro cuerpo, otra voz
Fui consumiendo infiernos, para salir de vos
Intoxicado, loco y, sin humor
(Arpegio)
Si hoy te tuviera aquí, cuando hago esta canción,
Me sentiría raro
No tengo sueño, mi panza vibra
Tuve un golpe energético, milagro y resurrección
Y eso que estaba tieso, bajo control
El poder siempre manda, si para tenerte aqui habría que maltratarte
No puedo hacerlo, sos mi dios
Te veo, me sonrojo y tiemblo, que idiota te hace el amor
Y hoy quiero darle rienda, a esta superstición
Un pacto para vivir
Un pacto para vivir
Un pacto para vivir
Un pacto para vivir
Un pacto para vivir
Un pacto para vivir
Un pacto para vivir
Un pacto para vivir
Un pacto para vivir
Un pacto para vivir, para vivir
Acordes:
(Donde hay una X no se toca)
Acordes arpegio:
(Se toca de la sexta cuerda a la primera,
una por una, como se escucha en la canción)
3X000X
2X020X
0X200X
X3201X
X5423X
XX0232
0XX000
X2443X
X2120X
2X023X
Acordes rasgueo:
X32010
X32013
320033
320031
022000
X32033
_ _ _ _ _ _ _ _ _ _ _ _ _ _ _ _ _ _ _ _ _ _ _ _ _ _ _ _ _ _ _ _ _ _ _
Acordes por Agustín Rivero (tilukpo)
Cualquier aclaración, duda o corrección, favor de comentar, estaré atento,
también necesito, si alguien sabe, el nombre de los acordes con "*"
Gracias!




[Un pacto para vivir acordes][Un pacto para vivir chords]
© LaCuerda.net · notícia legal · privacidade · es · en · pt · contato
DINAMICO