Cifras para Violão e Guitarra » B »Bersuit Vergarabat » La del Toro (Tab)

La del Toro
Bersuit Vergarabat

Letras, cifras e tablaturas para violão, guitarra, piano, ukulele e baixo

  •  C           G
       Que tengo que comer,
            C            G
       que tengo que dormir,
            C7             F  (silencio)
       que tengo que trabajar,
              E7
       y así…    no puedo mas.
    
       Am
    
    
    
       Am                     G
       Voy a fabricar una bandera
                             F
       pa’ que sepas lo que quiero
                         E7
       sin decirlo nunca mas.
    Am                       G
    
  •         DO              SOL
    Que tengo que comer
            DO              SOL
    que tengo que dormir
            DO7            FA
    que tengo que trabajar
           MI                 LAm
    y así     no puedo mais...                  
    
                                       SOL
    Voy a fabricar una bandera
                                        FA
    pa´ que sepas lo que quiero
                                 MI
    sin decirlo nunca más ...
    No me encierres la cabeza 
    tu mirada es muy espesa
    sólo está pa´ controlar...
    Que si aguanto te odio tanto
    que si te quiero te espanto
    
  • La intro:
    
    1|-12-13----12-------------------------------------
    2|-------15----13-15-12-13----------12-12-12/13/12
    3|-------------------------14-13-14----------------
    4|-------------------------------------------------
    5|-------------------------------------------------
    6|-------------------------------------------------
    
    1|-------------------------------------------------
    2|----------12-13---15--17-------------------------
    3|------14-----------------------------------------
    4|--14---------------------------------------------
    5|-------------------------------------------------
    6|-------------------------------------------------
    
    El solo:
    
    1|-------------------------------------------------------8-7-------
    2|---------------------------------------------8-9-10--8-----10-8--
    3|--------------------7------------------7-8-9---------------------
    4|-------------7-9-10---10--9/10/9----10---------------------------
    5|------7-8-10-----------------------------------------------------
    6|-8-10-------
  • Para tocar este tema, cada acorde de la guitarra se hace de esta manera. 
    Escuchando el tema sale fácil. 
    Los acordes menores (ej: Am) son exactamente iguales.
    NOTA: Los acordes de guitarra son de Matías Bermejo (bajados de ATAME).
    
    A (La):            G (Sol):           F (Fa):            E (Mi):
    
    G|-----|           G|-----|           G|-----|           G|-----|
    D|-----|           D|-----|           D|-----|           D|-----|
    A|--4-7|           A|--2-5|           A|--0-3|           A|----2|
    E|5----|           E|3----|           E|1----|           E|0-4--|
    
    
    Que tengo que comer
    que tengo que dormir
    que tengo que trabajar
    y así     no puedo mais...	Am (4 veces)
    
                                       SOL (2v)
    Voy a fabricar una bandera
                                        FA (2v)
    pa´ que sepas lo que quiero
                                 MI (2v)
    sin decirlo nunca más ...
    No me encierres la cabeza 
    tu mirada es muy espesa
    sólo está pa´ controlar...
    Que si agua
  • +
    ¡Colabora con nosotros!
    Envíanos tu versión de esta canción
  • Tutorial
    La del toro - Bersuit - Acordes de guitarra
    4:19

Letra de La del Toro
Que tengo que comer,
que tengo que dormir,
que tengo que trabajar,
y así… no puedo mas.
Voy a fabricar una bandera
pa’ que sepas lo que quiero
sin decirlo nunca mas.
No me encierres la cabeza,
tu mirada es muy espesa,
sólo está pa’ controlar.
Que si aguanto te odio tanto,
que si te quiero te espanto,
que me río y te hace mal.
No hay fracaso más rotundo
que haberse venido al mundo
pa’ morirse y nada mas.
Que tengo huevo e’ toro y alma de buey
y ando a las cornadas con la ley.
En tu manto de sangre me correré
si vienes con la espada, olé olé.
Llevo años esperando,
a veces arrodillado
mendigando algo de amor.
Te doy todo lo que tengo,
lo que no es mío vendo
pa’ pasarla algo mejor.
Que si aguanto te odio tanto,
que si te quiero te espanto,
que me río y te hace mal.
No hay fracaso más rotundo
que haberse venido al mundo
pa’ aburrirse y nada más.
No droguen mas al toro, dróguenme a mí,
preciso fantasía pa’ seguir.
No droguen mas al toro, dróguenme a mí,
hay que darse coraje pa’ vivir.
Me voy a disfrazar de toro
y a dar por culo al torero.
Me voy a disfrazar de toro
y a dar por culo al torero.
Que me voy a disfrazar de toro
y a dar por culo al torero.
Que me voy a disfrazar, me voy a disfrazar,
y a dar por culo al torero.
Pero tengo que comer,
y tengo que dormir.
Mañana hay que trabajar
No quiero más,
no pienso más,
no puedo más,
me quedo alza’o!




[La del Toro acordes][La del Toro chords]
© LaCuerda.net · notícia legal · privacidade · es · en · pt · contato
DINAMICO