Cifras para Violão e Guitarra » H »Héroes del Silencio » Agosto (Tab)

Agosto
Héroes del Silencio

Letras, cifras e tablaturas para violão, guitarra, piano, ukulele e baixo

  • INTRO: A D
    
    A                           D
    LA SANGRE GITANA QUE LLEVO DENTRO
                                  A
    SE MEZCLA EN COCTEL DE DULCE SABOR
    
    
    A                             D
    LA SANGRE GITANA QUE LLEVO DENTRO
                 A
    ME ABRE EL FUEGO....
    
    
    E               D             A
    DE MIS MANOS... DIRECTO AL CORAZON
    
    A                          D
    Y DE MADRUGADA EL MAR DE ALELI
                                A
    
  • INTRO: A  (D A)x5
    
    DURANTE EL VERSO “A D” LA GUITARRA ES DE LA SIGUIENTE MANERA:
    
    ESTO ES CUANDO ESTA EN “A”   ESTO ES CUANDO ES “D”
     -------------                     -------------
     ----2---2----                     ----2---2----
     ------4------   x4   Y LUEGO...   ------4------   x4
     -------------                     -0--------0--
     -0--------0--                     -------------
     -------------                     -------------
    
    VERSO.
    
    A                            D
     LA SANGRE GITANA QUE LLEVO DENTRO
    
                                    A
    SE MEZCLA EN COCTEL DE DULCE SABOR
    
    
  • Intro: toca A (La) unas veces y después...
                                  D                        D
    |----------0------------------2--0----0----------------2--------------|
    |--2---------2----------------3------------3/2---------3--------------|
    |----2---2-----2-----2--1-----2----2----2------2-------2--------------|
    |------0-----------2-------2--0------------------2—----0--------------|
    |-----------------------------0------------------------0--------------|
    |-----------------------------0------------------------0--------------|
    y sigue                    D                    D   
    |0---0---------------------2---0---0------------2---------------------|
    |--------3/2---------------3-----------3/2------3---------------------|
    |--2---2-----2-----2--1----2-----2---2------2---2---------------------|
    |---------------2-------2--0--------------------0---------------------|
    |--------------------------0--------------------0---------------------|
    |--------------------------0-----------
  • Intro: toca A (La) unas veces y después...
                                  D                        D
    |----------0------------------2--0----0----------------2--------------|
    |--2---------2----------------3------------3/2---------3--------------|
    |----2---2-----2-----2--1-----2----2----2------2-------2--------------|
    |------0-----------2-------2--0------------------2—----0--------------|
    |-----------------------------0------------------------0--------------|
    |-----------------------------0------------------------0--------------|
    y sigue                    D                    D
    |0---0---------------------2---0---0------------2---------------------|
    |--------3/2---------------3-----------3/2------3---------------------|
    |--2---2-----2-----2--1----2-----2---2------2---2---------------------|
    |---------------2-------2--0--------------------0---------------------|
    |--------------------------0--------------------0---------------------|
    |--------------------------0--------------------0-------
  • Bajo
    
    
    
                                                                   
    G||--2----------------|--2----------------|--2----------------|
    D||-------------------|-------------------|-------------------|
    A||--0----------------|--0----------------|--0----------------|
    E||-------------------|-------------------|-------------------|
    
    
                                                                      
    --2----------------|----------------------|----------------------|
    -------------------|----------------------|----------------------|
    --0----------------|--0----0--0----0------|--4----4--4----4------|
    -------------------|----------------------|----------------------|
    
    
                                                                         
    ----------------------|----------------------|----------------------|
    ----------------------|--0----0--0----0------|----------------------|
    --0----0--0----0------|----------------------|--0----0--0----0------|
    ----------------------|--------
  • +
    ¡Colabora con nosotros!
    Envíanos tu versión de esta canción

Letra de Agosto
LA SANGRE GITANA QUE LLEVO DENTRO
SE MEZCLA EN COCTEL DE DULCE SABOR
LA SANGRE GITANA QUE LLEVO DENTRO
ME ABRE EL FUEGO....
DE MIS MANOS... DIRECTO AL CORAZON
Y DE MADRUGADA EL MAR DE ALELI
SOBREVUELA TRANSFORMANDO MAREAS
CADA MADRUGADA EL MAR DE ALELI...
Y NO LO SIENTO POR TI
TARDE O TEMPRANO ME PERDERE EN CADENA
UNA VEZ EN LA VIDA DEBO ENCONTRAR DENTRO DE MI
UNA NOCHE DE AGOSTO MI ALMA PERDIDA TE ARROJE AL MAR
LA MISMO SE REPITE EN EL SIGUIENTE VERSO Y EL CORO.




[Agosto acordes][Agosto chords]
© LaCuerda.net · notícia legal · privacidade · es · en · pt · contato
DINAMICO