Cifras para Violão e Guitarra » H »Héroes del Silencio » la Herida (Tab)

la Herida
Héroes del Silencio

Letras, cifras e tablaturas para violão, guitarra, piano, ukulele e baixo

  • INTRO [Am G Dm Am] x 4
    
    C              Em
    Siempre es la misma funcion 
        Am             C
    el mismo espectador
               Em
    el mismo teatro 
               Am               C
    en el que tantas veces actuo
                 Em
    y perder la razon 
       Am
    en un juego tan real
    C               Em   
    quizas fuera un error 
     G                        Am
    curame esta herida por favor
    
                Am 
    
  • INTRO [Am G Dm Am] x 4
    
    Coro:
    C              Em
    Siempre es la misma función
        Am
    el mismo espectador
    C           Em
    el mismo teatro
               Am
    en el que tantas veces actuó
    C             Em
     y perder la razón
       Am
    en un juego tan real
    C               Em
    quizas fuera un error
     G                        Am
    curame esta herida por favor
    
    
  • E-0--0---0/1/0-0-------3--3-----------------1---1--1-1/3-0/1--0----------
    B-1---1-------3-3-1-0--3---3---3/5/3-3------3----3-----------3-1/3-1-1---
    G-2----2-------------0-0----0-------5-5-4-0-2-2---2----------------2--2--
    D-2--------------------0--------------------0----------------------2---2-
    A-0--------------------2--------------------0----------------------0-----
    E-0--------------------3--------------------0----------------------------
    
    E------------------------------------------------------------------------
    B-0/1/0-0----------------------------------------------------------------
    G------2-0/2/0-----------------------------------------------------------
    D-------------2-0--------------------------------------------------------
    A------------------------------------------------------------------------
    E------------------------------------------------------------------------
    
    C              Em               Am                                            
    Siempre es la misma función, el mismo espectador
    C          Em               Am                                               
    El mismo teatro, en el que tantas veces actuo
    C            Em       Am                             
    Y perder la razón en un juego tan real
    
  • INTRO: Am G Dm D9 x2 (ESTOS ACORDES SE TOCAN JUNTO CON EL ARPEGIO)
    
       Am                               G
    e|--0---0------0h1h0---0---------|--3---3-------------------------|
    B|--1-----1----------3----1h0----|--3-----3----3h5h3---3----------|
    G|--2-------2-----------------0--|--0-------0--------5---5-4------|
    D|--2----------------------------|--0------------------------5/7--|
    A|--0----------------------------|--------------------------------|
    E|-------------------------------|--------------------------------|
    
     Dm                           D9
    --------------0-----0------|--0------------------------|
    --6---(6)-6-8---6----------|--1---0h1h0----------------|
    --7---------------7---5h7--|--2---------2h0-0h2h0------|
    --7------------------------|----------------------2h0--|
    ---------------------------|---------------------------|
    ---------------------------|---------------------------|
    
    (ESTO DE ARRIBA SE REPITE 2 VECES)
    
    
  •     Am                  G                   Dm                  Am
    
    e|--0-0---0h1p0---------3-3--------------------1---0---5---4---3---2--0--|]
    B|--1--1-------3p1p0----3---3--3h4p3---------6---2---6---5---4---3----1--|]
    G|--2---2-----------2-0-4-----4------5-4-----7------------------------2--|]
    D|--2-------------------5----------------5/7-7------------------------2--|]
    A|--0-----------------------------------------------------------------0--|]
    E|-----------------------------------------------------------------------|]
    
    
      Am
    e-------------------------------'
    B-0h1p0-------------------------'
    G------0h2p0--------------------'
    D-----------0h2p0---------------'
    A-------------------------------'
    E-------------------------------'
    
    
    Coro=-
    
  • |-----------------------------------------------------------
    |----------------------------6-6-5---5h6p5------------------
    |---------5-7-4-5-5p4/2-5-4--------7------------------------
    |-7---5-7----------------------------------7-7-5---5h7p5----
    |---7--------------------------------------------7-------7--
    |-----------------------------------------------------------
    
    |-----------------------------------------------------------
    |------------------------------8-6-5------------------------
    |---------5-7-5-7-7p5/4-7-5----------5-7-5h7p5p4-7-5--------
    |-7---5-7--------------------7-----------------------7-7----
    |---7-------------------------------------------------------
    |-----------------------------------------------------------
    
    |-----------------------------------------------------------
    |----------------------------6-6-5---5h6p5------------------
    |---------5-7-4-5-5p4/2-5-4--------7------------------------
    |-7---5-7----------------------------------7-7-5---5h7p5----
    |---
  •    Am                               G                             Dm
    1.--0--0-----0/1/0----0-------------3--3---------------------------1-
    2.--1----1----------3---3--1--0-----3----3----3/5/3---3------------3-
    3.--2------2---------------------0--0------0--------5----5-4--0/2--2-
    4.--2-------------------------------0------------------------------0-
    5.--0-------------------------------2------------------------------0-
    6.--0-------------------------------3------------------------------0-
    
                               Am
    1.---1--1/3--0/1---0--------0------------------------------
    2.---------------3---1/3/1--1-1-----0/1/0---0--------------
    3.-2------------------------2---2---------2---0/2/0--------
    4.--------------------------2-----2------------------2-0---
    5.--------------------------0------------------------------
    6.--------------------------0------------------------------
    
    
    Esto se repite 3 veses, la 2da y 3era ves se acompaña con la armonica..
    
    C            Em                Am
    
  • INTRO 
    La guitarra entra sola y despues del redoble de bateria entra el bajo:
    
                                   
    G|--------------------------|
    D|----------5---/7h5(0)-------|
    A|-0---5/7-5--------------0-|
    E|--------------------------|
    
    G|-------------------------------|
    D|----------5--55---0--00--------|
    A|-0--00--------------------0--0-|
    E|-------------------------------|
    
    
    VERSO 1
      C              Em
      Siempre es la misma funcion 
    G|-------------------------------|
    D|--------------------------------|
    A|-3---3-3---3---7---7-7----7-----|
    E|-------------------------------|
    
          Am             
      el mismo espectador
    G|----------------------------|
    D|----------------------------|
    A|-0---0-0---0---0-0---0---0-0|
    E|----------------------------|
    
      C          Em
      el mismo teatro 
    G|---------------------|
    D|---------------------|
    A|3---3-3--3--7---7-7--|
    E|---------------------|
    
                 Am               
      en el que tantas veces actuo
    G|--------
  • Esta buenisima cancion de HDS incluida en el espiritu del Vino
    esta es la parte del intro pueden tocarla en una armonica en c
    a mi me suena muy bien:
    
    
    pero primero para los q no saben:
    (x)=nota aspirada
     x =nota soplada
     > =ligar nota
     b = bend
    
    
    Ahora si...
    Intro:
         (4)4(4)5 (5)55(4)(4) 4(4)5(5)(5) 5(4)4
           (4)4(4)5(5)5 (5)55 (4)(4)4(4)>(5)5(5)5(5)5...
          ....Siempres la misma....
    
    ojala les sirva...
    Arriba el rock!!!!
    
    
    
    TRANSCRIPCION DE
    Neto (neto_skywalker9@hotmail.com)
    **********************************************************************
    Hola pues este es la parte de la armonica que viene en la version
    orignal de la herida del album Espiritu del vino. Por un tiempo
    la busque por este medio pero la verdad es que no hay, hasta que un
    día la escuche y la decidi sacar y pues bueno ya hasta la tocamos
    en el grupo, supongo que soy el 1ro en subirla a estos medios.
    Es la parte delsolo de armonica.
    
    Esto viene despues de cuando bunbury dice por
    favoooooooooooooooooorrr
    
  • +
    ¡Colabora con nosotros!
    Envíanos tu versión de esta canción
  • Tutorial
    Cómo tocar 'La Herida' de Héroes del Silencio (Tutorial para principiantes/Intermedio)
    Parte 1 de 2
    11:26
  • Tutorial
    Como Tocar La Herida (intro)
    - Clases de Guitarra On Line
    1:36
  • Tutorial
    COMO TOCAR LA HERIDA cover heroes del silencio y bunbury
    1:15

Letra de la Herida
Siempre es la misma funcion
el mismo espectador
el mismo teatro
en el que tantas veces actuo
y perder la razon
en un juego tan real
quizas fuera un error
curame esta herida por favor
Que hay en dos amigos
cuando despues de todo
parecen perdidos
y prefieren a otros?

Que dan lerdas manos
ignorando lo dado
si antano se estrecharon
ahora estan enganados?
que les hizo alejarse
de su orilla intranquila
tan siquiera un instante
piensan en esos dias?
Siempre es la misma funcion
el mismo espectador
el mismo teatro
en el que tantas veces actuo
y perder la razon
en un juego tan real
quizas fuera un error
curame esta herida por favor
Siempre he preferido
un beso prolongado
aunque sepa que miente
aunque sepa que es falso
Que demonios ocurre
cuando miradas no se encuentran
la pelea de gallos
se admiten apuestas
Quien busco el abrigo
en algun otro lugar
es posible que el frio
venga con la edad
Siempre es la misma funcion
el mismo espectador
el mismo teatro
en el que tantas veces actuo
y perder la razon
en un juego tan real
quizas fuera un error
curame esta herida por favor
Siempre es la misma funcion
el mismo espectador
el mismo teatro
en el que tantas veces actuo
y perder la razon
en un juego tan real
quizas fuera un error
curame esta herida por favor




[la Herida acordes][la Herida chords]
© LaCuerda.net · notícia legal · privacidade · es · en · pt · contato
DINAMICO