Cifras para Violão e Guitarra » H »Héroes del Silencio » Mar Adentro (Tab)

Mar Adentro
Héroes del Silencio

Letras, cifras e tablaturas para violão, guitarra, piano, ukulele e baixo

  • LA#sus
    
    E|-------1-------
    B|-------1-------
    G|-------3------
    D|-------3-----
    A|-------1-----
    E|-------1-----
    
    tambien lo podes conocer como un Sib5
    
    
    
         Mar adentro
    (Heroes del silencio)
    
    INTRO [REm FA LA#sus LAm]
    
           REm                     FA
    Y por fin he encontrado el camino
    
  • INTRO [Dm F A#sus Am
    
           Dm                     F
    Y por fin he encontrado el camino    
         A#sus           Am
    que ha de guiar mis pasos,   
            Dm                  F
    y esta noche me espera el amor
                A#sus  Am
    en tus labios.    
        Dm             F
    De cada mirada, por dios,
           A#sus              Am
    ardia el recuerdo en mi interior,
              Dm
    pero ya he desechado     
          F                  A#sus Am [Dm Am] x 2
    por siempre la fruta podrida.
    
    e-------------|--------------------------- 
    
  •    Dm                           F
    e|-5--5-5-5--5--5-5-5--5--5-5-|-5--5-5-5--5--5-5-5--5--5-5-|
    B|-6--6-6-6--6--6-6-6--6--6-6-|-6--6-6-6--6--6-6-6--6--6-6-|
    G|-7--7-7-7--7--7-7-7--7--7-7-|-5--5-5-5--5--5-5-5--5--5-5-|
    D|-7--7-7-7--7--7-7-7--7--7-7-|-7--7-7-7--7--7-7-7--7--7-7-|
    A|-5--5-5-5--5--5-5-5--5--5-5-|-8--8-8-8--8--8-8-8--8--8-8-|
    E|-X--X-X-X--X--X-X-X--X--X-X-|-X--X-X-X--X--X-X-X--X--X-X-|
       V  ^ v ^  V  ^ v ^  V  ^ v   V  ^ v ^  V  ^ v ^  V  ^ v
    
       Bb                            Am6           Am
    e|-5--5-5-5-5-5--5-5-5--5--5-5-|-5--5-5-5-5-5--5-5-5--5--5-5-|
    B|-6--6-6-6-6-6--6-6-6--6--6-6-|-6--6-6-6-6-6--5-5-5--5--5-5-|
    G|-7--7-7-7-7-7--7-7-7--7--7-7-|-5--5-5-5-5-5--5-5-5--5--5-5-|
    D|-8--8-8-8-8-8--8-8-8--8--8-8-|-7--7-7-7-7-7--7-7-7--7--7-7-|
    A|-5--5-5-5-5-5--5-5-5--5--5-5-|-7--7-7-7-7-7--7-7-7--7--7-7-|
    E|-X--X-X-X-X-X--X-X-X--X--X-X-|-X--X-X-X-X-X-(5)............|
       V                    V        V                    V
                                                         Y por...
    
    El intro va dos veces.
    
  •    Dm       F       A#      Am
    |---5-------5-------5-------5--5--5----|
    |---6-------6-------6-------6--5--6----|
    |---7-------5-------7-------5--5--5----|
    |---7-------7-------8-------7--7--7----|
    |---5-------8-------5-------7--7--7----|
    |---5-------5-------5-------5--5--5----|
    
    
    Verse 1
    
           Dm                     F
    Y por fin he encontrado el camino    
         A#               Am
    que ha de guiar mis pasos,   
            Dm                  F
    y esta noche me espera el amor    
            A#          Am
    en tus labios.
        
    
  • Dm       F       A#      Am
    
    Verse I
    
           Dm                     F
    Y por fin he encontrado el camino
         A#               Am
    que ha de guiar mis pasos,
            Dm                  F
    y esta noche me espera el amor
            A#          Am
    en tus labios.
    
        Dm             F
    De cada mirada, por dios,
       A#                 Am
    ardia el recuerdo en mi interior,
          Dm
    pero ya he desechado
          F                  A#          Am
    
  • la anterior es buena
    Solo q faltan algunos arreglos
    espero q les guste y la califiquen bn
     saludos a la banda
    de la epl
    ganapanez
    
    intro guitarra
    entra bajo a la a tercera vuelta de la guitarra
    
    riff 1
    G----------------------------------------------------------------I
    D----------3333333------------------------3333333----------------I
    A----55555---------11111------------55555--------11111-----------Ix2
    E-------------------------5555-5653 ---------------------5555-563-I
    se toca 2 veces(una vuelta por estrofa)
    
    Y por fin he encontrado el camino
    que ha de guiar mis pasos,
    y esta noche me espera el amor
    en tus labios.
    
    De cada mirada, por dios,
    ardía el recuerdo en mi interior,
    pero ya he desechado
    por siempre la fruta podrida.
    
    fig del piano
    riff 2
    G-----------------------------------------------------------------I
    D-----------------------------------------------------------------I
    A--------5555555S*121212121212---3-55555555*1212121212-------------I
    E------------------------------5-------
  • SI ALGUIEN LLEGA A LEER ESTA TABLATURA DE BAJO
    ESTA ROLA SE TOCA DE LA SIGUIENTE MANERA
    
    ES:(Dm F A# Am)x2 (SE TOCA DOS VECES SIN EL BAJO
    AL PRINCIPIO Y A LA MITAD DE LA ROLA)
       
    LA PARTE DEL PIANO ES:(Dm Am Dm Am)
    
    Y EL CORO ES:(C Em G).
    
    Y ASI SE TOCA EN ESE ORDEN DURANTE TODA LA ROLA
    AUN EN EL SOLO, POR QUE ME HE DADO CUENTA QUE MUCHOS
    OMITEN LA PARTE DE (Dm Am Dm Am) Y TAMBIEN SE TOCA 
    EN EL SOLO...SI TIENEN DUDA ESCRIBANME UN MAIL
    
    EL BAJO ENTRA HASTA LA TERCERA VUELTA TANTO AL
    PRINCIPIO COMO A LA MITAD  Y SE BAJEA AL RITMO 
    DEL RASGUEO O SEA... MUY RAPIDO
    
    G||---------------------------------------------||
    D||---------------------------------------------||
    A||--555555555-888888888-111111111-0000-3-0-3-0-||x2
    E||---------------------------------------------||
    
    
    
    G||---------------------------------------------||
    D||---------------------------------------------||
    A||--555555555-000000000-555555555-0000000000---||
    E||------------------------------------
  • Aqui estan las Tablaturas de bateria para "Mar Adentro"..
    Tratare de hacer todas las canciones de "Heroes" para
    Bateria.. Pero nesecitare un poco largo tiempo para
    leerlas en midi y escibirlas en forma de tablatura..
    si se les ofrese una cancion enviame un mensaje para que
    trabaje en la ofresida..
    
    myspace.com/heroesdelsilencioeduardo
    eduadog.803b@hotmail.com
    
    prefereia que me enviaran su mensaje a myspace, porque no
    me meto a hotmail tanto..
    
    
    Ritmo 1
    ___1_|_2_|_3_|_4_|_5_|_6_|_7_|_8_|_9_|_10|_11|_12|_13|_14|_15|_16|
    Hi-x-x-x-x-x-x-x-x-x-x-x-x-x-x-x-x-x-x-x-x-x-x-x-x-x-x-x-x-x-x-x-x
    B1-o-----------------------------------o--------------------------
    Sn-------------o-------------------------------o------------------
    T1----------------------------------------------------------------
    T2----------------------------------------------------------------
    T3----------------------------------------------------------------
    Cr----------------------------------------------------------------
    
    Cambio
  • +
    ¡Colabora con nosotros!
    Envíanos tu versión de esta canción

Letra de Mar Adentro
Y por fin he encontrado el camino
que ha de guiar mis pasos,
y esta noche me espera el amor
en tus labios.
De cada mirada, por dios,
ardia el recuerdo en mi interior,
pero ya he desechado
por siempre la fruta podrida.
En la prision del deseo estoy.
y aunque deba cavar en la tierra
la tumba que se que me espera
jamas me vio nadie llorar asi.
que termine un momento precioso
y le suceda la vulgaridad,
y nadar mar adentro
y no poder salir.
En la prision del deseo estoy.
junto a ti.
REPETIR INTRO
Y por fin he encontrado el camino
que ha de guiar mis pasos,
y esta noche me espera el amor
en tus labios.
De cada mirada, por dios,
ardia el recuerdo en mi interior,
Dm Fy nadar mar adentro
y no querer salir.
En la prision del deseo estoy.
En la prision del deseo estoy.
junto a ti.
En la prision del deseo estoy.
junto a ti.




[Mar Adentro acordes][Mar Adentro chords]
© LaCuerda.net · notícia legal · privacidade · es · en · pt · contato
DINAMICO