Cifras para Violão e Guitarra » H »Héroes del Silencio » el Estanque (Tab)

el Estanque
Héroes del Silencio

Letras, cifras e tablaturas para violão, guitarra, piano, ukulele e baixo

  • INTRO [Dm Am C Dm] x 4
    
          [G Em F] x 2           NO RECUERDO BIEN LOS TIEMPOS
          [Em Bm D Em] x 2       PERO ESTAS SON LAS SECUENCIAS 
          [G Em F]               DE ACORDES
          [Em Bm D Bm]
    
    
    Em
    Las leyes salvajes    
       Bm
    empanan mi huida
    D               Em
    el estanque no para de crecer
    G                Em
    tanto sube el nivel
        F                 Am
    el mar se derrama ahogandome
        A#
    ahogandome     
    
  • INTRO [Dm Am C Dm] x 4
    
          [G Em F]               NO RECUERDO BIEN LOS TIEMPOS
          [Em Bm D Em] x 2       PERO ESTAS SON LAS SECUENCIAS
          [G Em F]               DE ACORDES
          [Em Bm D Em]
    
    
    Em
    Las leyes salvajes
       Bm
    empanan mi huida
    D               Em            G
    el estanque no para de crecer
    
                    Em
    tanto sube el nivel
        F                 Em       G
    el mar se derrama ahogándome
                    Em
    
  • Dm Am C x3
    
    G Em F una vez
    
    Em Bm D Em 2 veces
    
    G Em F una vez
    
    Acabándose el intro, oímos que entra la batería, a partir de ahí se toca esto:
    
    F Em Bm D Em Una vez
    
    Luego empieza la canción
    Em                  Bm
    Las leyes salvajes empañan mi vida,
    
    D               Em            G
    el estanque no para de crecer
    
    Sigue el estribillo
    
  •                                 Dm                   Am
      0:01| 0:02| 0:03| 0:04| 0:05| 0:06| 0:07| 0:08| 0:09| 0:10| 0:11|
    e------------------------------------------------------------------
    B------------------------------------------------------------------
    G------------------------------------------------------------------
    D------------------------------------------------------------------
    A------------------------------------------------------------------
    E------------------------------------------------------------------
    
    Sec2
    
              C                   Dm                  Dm
      0:12| 0:13| 0:14| 0:15| 0:16| 0:17| 0:18| 0:19| 0:20| 0:21| 0:22|
    e------------------------------------------------------------------
    B------------------------------------------------------------------
    G---------------------------0===-----------------5-h7=~==---------7
    D------------------------0h2=-0=======--------------------------7--
    A---0--2--3~~~~--------3-------------------------------------------
    E------------------------------------------------------------------
    
    
  • e.-------------------------'-------------------------'
    B.-------------------------'------------x2-----------'
    G.---------------------5h7-'--(b7-5-7/9)---b7-5-7/10-'
    D.-----------3-3h5p3-------'-------------------------'
    A.0-2-2/3-3h5--------5-----'-------------------------'
    E.-------------------------'-------------------------'
    
                                                       Dm
    e.---------------------------------------------------5-'
    B.---------------6-5--5p3----------------------------6-'
    G.9p7--7p5h7---7-----------5-5-----------------------7-'
    D.-----------7---------------5--5h7-8-7-5------------5-'
    A.----------------------------------------8-7-5------5-'
    E.-----------------------------------------------------'
    
    
    e.-8-7--------------------------------------------'
    B.-----8-5--8-7-5--------5-6-8-6--5-6-5--------8--'
    D.----------------4------x--------x-----4----9---9'
    G.-----------------------x--------x--------9------'
    
  • Dm Am C Dm
    
          Dm                 Am             C              Dm
    E---|--------|--------1--0--|--0-----------|--------------|-------------
    B---|--1--3--|-----3--------|-----3--1-----|--------1--3--|--3--1--3----
    G---|--------|--2-----------|-----------0--|--0--2--------|-------------
    D---|--------|--------------|--------------|--------------|-------------
    A---|--------|--------------|--------------|--------------|-------------
    E---|--------|--------------|--------------|--------------|-------------
    
    
                     Am             C             Dm       G
    E----|--------1--0--|--0-----------|-------------|-----3--|--8--7--3----
    B---\|-----3--------|-----3--1-----|-------1--3--|--3-----|-------------
    G----|--2-----------|-----------0--|--0h2--------|--------|-------------
    D----|--------------|--------------|-------------|--------|-------------
    A----|--------------|--------------|-------------|--------|-------------
    E----|--------------|--------------|-------------|--------|-------------
    
    
    
  • Intro: Dm-Am
    
       C        Dm              Dm           Am        C       Dm
    /-------------------------/------------1-0----0------------------/
    /-------------------------/--1/3-----3----------3--1----------1-3/
    /-------------------------/--------2-----------------0--0-0-2----/
    /-------------------2-5-0-/--------------------------------------/
    /--0-2-3-----3----3-------/--------------------------------------/
    /-------------------------/--------------------------------------/
    
    
    
     Dm                  Am                  C                 Dm
    /-------------1-0----8---7---5-----------------------------------/
    /-3-1-3-----3----------5---5---5-5-------------------------------/
    /---------2------------------------7-5--------0-2-3-2-0----------/
    /---------------------------------------5---------------3-2-0----/
    /----------------------------------------------------------------/
    /----------------------------------------------------------------/
    
    
  • Guitarra acústica    Dm   Am
    
    
    
            C             Dm            Am       C
    e|-----------------------------------------------|
    B|--------------------------------6-5-5----------|
    G|-----------------------5/7----7-------7-5------|
    D|-----------------5----------7--------------5---|
    A|------------5h7-----5--------------------------|
    E|--5-7-8--8-------------------------------------|
    
                Dm               Am
    e|------------------------------8---7---5--------|
    B|-------------------------6-5----5---5---5------|
    G|--------5-7--7-5-7-----7-------------------7-5-|
    D|--5-5h7--------------7-------------------------|
    A|-----------------------------------------------|
    E|-----------------------------------------------|
    
    
  • Aqui estan las Tablaturas de bateria para "El Estanque"..
    Tratare de hacer todas las canciones de "Heroes" para
    Bateria.. Pero nesecitare un poco largo tiempo para
    leerlas en midi y escibirlas en forma de tablatura..
    si se les ofrese una cancion enviame un mensaje para que
    trabaje en la ofresida..
    
    myspace.com/heroesdelsilencioeduardo
    eduadog.803b@hotmail.com
    
    prefereia que me enviaran su mensaje a myspace, porque no
    me meto a hotmail tanto..
    
    
    Bass Drum 1-----B1
    Snare-----------Sn
    Crash Cymbal 1--C1
    ---------------------
    Intro:
    __|_1_|_2_|_3_|_4_|
    Hi-----------------
    B1----------o---o--
    C1----------o------
    
    Ritmo: 1
    __|_1_|_2_|_3_|_4_|_5_|_6_|_7_|_8_|
    Hi-x-x-x-x-x-x-x-x-x-x-x-x-x-x-x-x-
    B1------o-------o-----------o---o--
    Sn--o---------------o--------------
    C1---------------------------------
    
    
    Ritmo: 2
    __|_1_|_2_|_3_|_4_|_5_|_6_|_7_|_8_|
    Hi-x-x-x-x-x-x-x-x-x-x-x-x-x-x-x-x-
    B1------o-------o-----------o---o--
    Sn--o---------------o--------------
    C1--------------------------o------
    
    
    Ri
  • +
    ¡Colabora con nosotros!
    Envíanos tu versión de esta canción

Letra de el Estanque
Las leyes salvajes
empanan mi huida
el estanque no para de crecer
tanto sube el nivel
el mar se derrama ahogandome
ahogandome
el malentendido
el estanque
el estanque
tanto sube el nivel
el mar se derrama ahogandome
ahogandome




[el Estanque acordes][el Estanque chords]
© LaCuerda.net · notícia legal · privacidade · es · en · pt · contato
DINAMICO