Cifras para Violão e Guitarra » H »Héroes del Silencio » El mar no cesa (Tab)

El mar no cesa
Héroes del Silencio

Letras, cifras e tablaturas para violão, guitarra, piano, ukulele e baixo

  •  Em
     Esta en el vacio insostenible
    D                           Em
     la letal desidia que amenaza
    C              D
     Siento por momentos la ausencia de ti
     Em
     Carente de todo,disidente de nada
    D                            Em
     muero por impulsos de agonizante grillete
     C       D
     aprisionado por injustas manos 
                Em
     miro mil puertas        ohhhh!!!
    G                           Em
     Estan Abiertas A LA oscuridad  ah...
    G                           F
     estan abiertas a la oscuridad la la la...
    
      (bajeo)
    
  • Heroes del Silencio - El Mar no Cesa (De auerdo a mis oidos)
    Ever C. LA, CA 12/10/2008 5:35 P.M.
    
    Intro
     |--------------------------------------------------------------
     |--------------------------------------------------------------
     |--------9---------------9---------------9---------------9---0-
     |----9-----9-----9---9-----9-----9---9-----9-----9---9-----9---
     |--7---7-------7---7---7-------7---7---7-------7---7---7-------
     |--------------------------------------------------------------
    
     |--------------------------------------
     |--------------------------------------
     |----------7---------------------------
     |----4-------5-4-----4-----5---4-------
     |--5---5-----------5---5---------5-----
     |--------------------------------------
    
     |-----------------
     |--------8--------
     |------9---9------
     |----9-------9----
     |--7--------------
     |-----------------
    
     |-------------------2--2--2-2---2--2--2-2--
     |-------------------3--3--3-3---3--3--3-3--
     |--------0-----4----2--2--2-2---2--2--2-2--
     |
  • E-----|-----|-----
    B-----|-----|-----
    G-----|-----|--*--
    D-----|-----|--*--
    A--*--|-----|-----
    E-----|-----|-----
    
    ahora se toca esto:
                         Em
    E------------------------------------------------------
    B------------------------------------------------------
    G-------9--------------9-------------9-------------9---
    D----9-------9----9-9------9----9-9------9----9-9---9--
    A---7-7----------7-7-7---------7-7-7---------7-7-7---7-
    E------------------------------------------------------
    
    
    
    Para facilitar tocar el adorno siguiente (D) tus dedos
    deben de estar colocados de esta forma siguiente:
    
  • Este es el SOLO de la canción "el mar no cesa"
    
    Es mi primera tablatura pero hojala les guste.
    
    1.------------------------------------------------------------------------
    2.-------17--------------------------17-----------------------------------
    3.----16----16---16-17-16--16-----16----16----16-17-16--------------------
    4.-14---------17---------14----14----------17----------14-----16-19-19-19-
    5.---------------------------------------------------------17-------------
    6.------------------------------------------------------------------------
    
    
    1.------------------------------------------7-7-7-7---------------------
    2.-15(17)(15)----12-12/13/12---------9-9-9--5-5-5-5---------------------
    3.------------14-------------12-11-9-9-9-9--5-5-5-5--7-7--------7-----7-
    4.---------------------------------9-9-9-9--5-5-5-5--7-7--7-7/9---7/9---
    5.----------------------------------------------------------------------
    6.----------------------------------------------------------------------
    
    
    1.-15-14---
  •                                                                                 
    G||------------------|------------------|------------------|-------------------|
    D||------------------|------------------|------------------|-------------------|
    A||------------------|------------------|------------------|----------------3--|
    E||------------------|------------------|------------------|-------------------|
    
    
                                                                                   
    -------------------|------------------|-------------------|-------------------|
    --0----------------|------------------|-------------------|-------------------|
    -------------------|------------------|--2----------------|--3----------------|
    -------------------|------------------|-------------------|-------------------|
    
    
                                                                     
    -------------------|-------------------|------------------------|
    --0----------------|--0----------------|--2
  • Aqui estan las Tablaturas de bateria para "El Mar No Cesa"..
    Tratare de hacer todas las canciones de "Heroes" para
    Bateria.. Pero nesecitare un poco largo tiempo para
    leerlas en midi y escibirlas en forma de tablatura..
    si se les ofrese una cancion enviame un mensaje para que
    trabaje en la ofresida..
    
    myspace.com/heroesdelsilencioeduardo
    eduadog.803b@hotmail.com
    
    prefereia que me enviaran su mensaje a myspace, porque no
    me meto a hotmail tanto..
    
    
    Bass Drum 1-----B1
    Snare-----------Sn
    Crash Cymbal 1--C1
    Tom 1-----------T1
    Tom 2-----------T2
    Splash----------Sp
    ---------------------
    
    Tempo:165
    Intro:
    __|_1_|_2_|_3_|_4_|_5_|_6_|_7_|_8_|
    B1--o-o-o-------o-o-o-------o---o----------
    Sn---------------------------------
    C1---------------------------------
    T1---------------------------------
    T2---------------------------------
    
    Ritmo 1:
    __|_1_|_2_|_3_|_4_|_5_|_6_|_7_|_8_|
    Hi--x---x---x---x---x---x---x---x----------
    B1--o---o-------o-------o--------------
    Sn----------o---------------o-------
    C1-
  • +
    ¡Colabora con nosotros!
    Envíanos tu versión de esta canción

Letra de El mar no cesa
Esta en el vacio insostenible
la letal desidia que amenaza
Siento por momentos la ausencia de ti
Carente de todo,disidente de nada
muero por impulsos de agonizante grillete
aprisionado por injustas manos
miro mil puertas ohhhh!!!
estan abiertas a la oscuridad la la la...
(bajeo)
Méceme con el impulso de tu risa
arranca mi mascara de tragedia
que ventee el huracan mis telarañas
Carente de todo, disidente de nada
muero por impulsos de agonizante grillete
Aprisionado por injustas manos
miro mil puertas ohhhh!!!
estan abiertas a la oscuridad la la la...
se toca de nuevo los acordes del primer verso solo que en
esta ocasion solo se canta la parte de 'miro mil puertas'
o sea: Em D Em C D Em x 2 y luego
estan abiertas a la oscuridad la la la...
bien eso es todo disfruten esta rola




[El mar no cesa acordes][El mar no cesa chords]
© LaCuerda.net · notícia legal · privacidade · es · en · pt · contato
DINAMICO