Cifras para Violão e Guitarra » H »Héroes del Silencio » Para Siempre (Tab)

Para Siempre
Héroes del Silencio

Letras, cifras e tablaturas para violão, guitarra, piano, ukulele e baixo

  • Dm                  
     No me tienes que impresionar
         Bb
     ni que seguir la corriente
         Dm
     voy a apearme aqui 
            Bb     
     en la orilla del presente
    
            Dm                            Dm
     con la boca amarga y el corazon derrotado
        Dm      
     estoy plantando barreras 
           Bm            C
     a la sombra de mis pasos
    
            F
     la derrota no es una opcion  
    
     y ya no hay excusas
    
  • Em B
    
    
    verso:
    C                         D             Em          C                  
     no me tienes que impresionar ni que seguir la corriente
              F                G              E      C   D    Em B
    voy a quedarme aqui en la orilla del presente..
    C                  D                     Em            C 
     dónde el hombre se asfixia, escribe el testamento en chile negro
           F                 G                    E              C    D
    el suplicio es estar contigo eres la alquimia de mi veneno
    
    
    puente:
    
    Em                   C
    La derrota no es una acción
             D
    y no hay excusas
    
  • e------------------------------------------------------
    b------------------------------------------------------
    g------------------------------------------------------
    D------------------------------------------------------
    A------------------------------------------------------
    e-0-3-0-3-0--3-0-3-0-3-0--3-0-3-0-3-0--3-0-3-0-3-5-----
    
    ------------------------X2------------------------------
    
    
    luego sigue igual pero acompañando la segunda guitarra.
    
    e------------------------------------------------------
    b------------------------------------------------------
    g------------------------------------------------------
    D---5---5----5---5---5----5---5---5----5---5---5-7-----
    A-7---7---7----7---7---7----7---7---7----7---7---------
    e------------------------------------------------------
    
    e------------------------------------------------------
    
  • esta el la guit. principal la segunda está aparte
    
    E||------------------|------------------------|------------------------|
    B||------------------|------------------------|------------------------|
    G||------------------|------------------------|------------------------|
    D||------------------|------------------------|------------------------|
    A||------------------|------------------------|------------------------|
    E||------------------|--0----3--0--3--0----3--|----0--3--0--3--0----3--|
    
    
                                                                              
    ------------------------|-----------------------|------------------------|
    ------------------------|-----------------------|------------------------|
    ------------------------|-----------------------|------------------------|
    ------------------------|-----------------------|------------------------|
    ------------------------|----------------0------|------------------------|
    --0----3--0--3--0----3--|----0--3--0--3---
  •                                                                             
    G||------------------|--------------------------|--------------------------|
    D||------------------|--------------------------|--------------------------|
    A||------------------|--------------------------|--------------------------|
    E||------------------|--0--0--0--0--0--0--0--0--|--0--0--0--0--0--0--0--0--|
    
    
                                                                                   
    --------------------------|------------------------|--------------------------|
    --------------------------|------------------------|--------------------------|
    --------------------------|------------------------|--------------------------|
    --0--0--0--0--0--0--0--0--|--0--0--0--0--0--2------|--0--0--0--0--0--0--0--0--|
    
    
                                                                                   
    --------------------------|--------------------------|------------------------|
    --------------------------|--------
  • +
    ¡Colabora con nosotros!
    Envíanos tu versión de esta canción

Letra de Para Siempre
verso:
no me tienes que impresionar ni que seguir la corriente
voy a quedarme aqui en la orilla del presente..
dónde el hombre se asfixia, escribe el testamento en chile negro
el suplicio es estar contigo eres la alquimia de mi veneno
La derrota no es una acción
y no hay excusas
parasiempre me parece mucho tiempo...

parasiempre, no hay nada parasiempre, no
parasiempre, no hay nada parasiempre
<<<el verso va igual que el anterior.>>>
<puente 2>
vendré con la boca amarga y el corazón bien jodido...
<coro>
parasiempre, no hay nada parasiempre, no
parasiempre, no hay nada parasiempre
parasiempre, no hay nada parasiempre, no
parasiempre no hay nada parasiempre




[Para Siempre acordes][Para Siempre chords]
© LaCuerda.net · notícia legal · privacidade · es · en · pt · contato
DINAMICO