Cifras para Violão e Guitarra » J »Juanes » La camisa negra (Tab)

La camisa negra
Juanes

Letras, cifras e tablaturas para violão, guitarra, piano, ukulele e baixo

  • Intro     F#m    F#m  C#7 F#m  Bm  C#7  F#m    (2)
    
    F#m              C#7
    Tengo la camisa negra,
                           F#m
    hoy mi amor está de luto,
                              Bm
    hoy tengo en el alma una pena
              C#7           F#m
    y es por culpa de tu embrujo.
    
    Hoy sé que tú ya no me quieres,
    y eso es lo que mas me hiere,
    que tengo la camisa negra,
    y una pena que me duele.
    
    Mal parece que solo me quedé,
    y fue pura todita tu mentira,
    que maldita mala suerte la mía
                           F#
    
  •    F#m
    
    =Estrofa 1.1=
     F#m             Bm             D           F#m
     TENGO LA CAMISA NEGRA, HOY MI AMOR ESTÁ DE LUTO,
                              Bm            C#7           F#m
     HOY TENGO EN EL ALMA UNA PENA Y ES POR CULPA DE TU EMBRUJO.
                           Bm               D             F#m
     YO SÉ QUE TÚ YA NO ME QUIERES Y ESO ES LO QUE MÁS ME HIERE,
                         Bm          C#7         F#m
     QUE TENGO LA CAMISA NEGRA Y UNA PENA QUE ME DUELE.
    
    =Estrofa 1.2=
                               Bm       D      Bm7        F#m
     TAL PARECE QUE SOLO ME QUEDÉ Y FUE PURA TODITA TÚ MENTIRA,
                                Bm            C#7         F#m
     QUE MALDITA MALA SUERTE LA MÍA QUE AQUEL DÍA TE ENCONTRÉ.
           F#        A#m    B           F#
     POR BEBER DEL VENENO MALEVO DE TU AMOR
                  A#m     B          F#
    
  • INTRO: F#m Bm
    
    ESTROFA:
    F#m                   Bm
         Tengo la camisa negra
                           F#m
    hoy mi amor está de luto
                                Bm
    hoy tengo en el alma una pena
              C#               F#m
    y es por culpa de tu embrujo
    
    Hoy sé que tu ya no me quieres
    y eso es lo que mas me hiere
    que tengo la camisa negra
    y una pena que me duele
    
    mal parece que solo me quede
    y jue pura todita tu mentira
    que maldita mala suerte la mia
    
  •   F#m
    E|----2--2-|---2---2-|---2--2-|---2---2-|
    B|----2--2-|---2---2-|---2--2-|---2---2-|
    G|----2--2-|---2---2-|---2--2-|---2---2-|
    D|---------|---------|--------|---------|
    A|---------|-----4---|--------|-----4---|
    E|-2-------|-2-------|-2------|-2-------|
    
    
        F#m                    C#7                   F#m               Bm
    B|---------------------------|---------------------|-------------------|
    G|--2-2--1/2----1/2--------4-|-3/4----3/4--------6-|-5/6----5/6--------|
    D|--4-4--3/4-4--3/4-4--4/6-6-|-5/6-6--5/6-6--6/7-7-|-6/7-7--6/7-7--9-9-|
    A|---------------------------|---------------------|-------------------|
    
           C#7         F#m
    E|-----------------|----------------------------|
    B|---7------2------|----------------------------|
    G|-6-7-6--4-2--1---|-2-2----2-6-6---2-6-6-------|
    D|---------------4-|------4-------4-------4-4-6-|
    
  • Intro: F# -Bm-F#m -Bm-C#7 -X2   F#m
    
    >>>1
    E------2------2---------2---------2----------2------2------2-------2-
    B------2------2---------2---------2----------2------2------2-------2-
    G------2------2---------2---------2----------2------2------2-------2-
    D--------------------------------------------------------------------
    A-------------------------------4--------------------------------4---
    E----2----------------2--------------------2-------------2-----------
    
    >>>2
    E--------------------------------------------------------------------
    B----2--------2----------2-----------3--------3---------3------------
    G----1s2--2---1s2--2-----1s2--2------3s4--4---3s4--4----3s4--4-------
    D--------------------------------------------------------------------
    A--------------------------------------------------------------------
    E--------------------------------------------------------------------
    
    E--------------------------------------------------------------------
    B----6---------6-------------6---------------------------------------
    
  • e-------------------------------------------------------------------------
    B-------------------------------------------------------------------------
    G-1/2-2.--x--1/2-2-2.----1/2.---2.---2/4-4.--x--3/4-4-4.----3/4.---4.-----
    D-3/4-4.--x--3/4-4-4.----3/4.---4.---4/6-6.--x--5/6-6-6.----5/6.---6.-----
    A-------------------------------------------------------------------------
    E-------------------------------------------------------------------------
    
    
    e------------------------------------------------------------------------
    B-------------------------------------------7.--7.--6b(7)(6)-------------
    G-4h6-6.--x--4h6-6-6.---4h6.---6.---7---7---7.--7.--6b(7)(6)-------------
    D-6/7-7.--x--6/7-7-7.---6/7.---7.---9---9--------------------9-7.--6.----
    A------------------------------------------------------------------------
    E------------------------------------------------------------------------
    
    
    e-------------------------------------------------------------------------
    B-------------------------------------------------------------------------
    G-------2.--2---2-6---6p2-----2---6-6p2-----2-----------------------------
    D-4.----------4-----------4-------------4---------------------------------
    
  • Intro: F#m
    E||--------------------|-------------------|
    B||-------2---------2--|-------2---------2-|
    G||-------2---------2--|-------2---------2-|
    D||-------4---------4--|-------4---------4-|
    A||------------x-------|------------4------|
    E||--2-----------------|--2----------------|x2
    
    
    
    Acompañando esta parte se tocan estos acordes
    chequen bien los tiempos:
    F#m, C#7, F#m, Bm, C#7
    F#m...
    C#7, F#m, Bm, C#7, F#m...
    
    
    -------------------------------------------|
    -------------------------------------------|
    --2--2--1s2--2-2-2-2--4--4---2s6--6-6-6-6--|
    
  • INTRO (0:04)   SE REPITE DOS VECES
    
    G--------------------------------------------------------------------
    D--4------4---4-----6------6---6-----4------4---4---------0-0--------
    A-----4-4-------4-4----4-4-------4-4----4-4-------4-4--2------4-2-0--
    E-------------------------------------------------------------------4
    
    LA TERCERA VES SE TOCA ESTO
    G--------------------------------
    D--4------4---4-----4------4-----
    A-----4-4-------4-4----4-4-------
    E--------------------------------
    
    SE REPITE 2 VECES (0:29)
    G--------------------------------------------------------------------
    D--4------4---4-----6------6---6-----4------4---4---------0-0--------
    A-----4-4-------4-4----4-4-------4-4----4-4-------4-4--2------4-2-0--
    E-------------------------------------------------------------------4
    LUEGO ESTO
    G------------------------------------------------------
    D-4----------6-----6-----4-----4---4--------0-0---------
    A---4-4-/9/4---4-4---4-4---4-4-------4-4--2-----4-2-0---
    E---------
  • +
    ¡Colabora con nosotros!
    Envíanos tu versión de esta canción
  • Tutorial
    HD
    Como tocar La Camisa Negra en Guitarra Acustica (HD)
    Tutorial Arpeguio
    8:50
  • Tutorial
    HD
    como tocar la camisa negra de Juanes en guitarra acústica tutorial acordes y letra TAB
    10:30
  • Tutorial
    HD
    Como tocar "La Camisa Negra" de Juanes - TUTORIAL COMPLETO + TAB (HD)
    9:50
  • Tutorial
    HD
    Como tocar la Camisa Negra en Guitarra (HD)
    Tutorial Acordes Facil
    3:35

Letra de La camisa negra
ESTROFA:
Tengo la camisa negra
hoy mi amor está de luto
hoy tengo en el alma una pena
y es por culpa de tu embrujo
Hoy sé que tu ya no me quieres
y eso es lo que mas me hiere
que tengo la camisa negra
y una pena que me duele
mal parece que solo me quede
y jue pura todita tu mentira
que maldita mala suerte la mia
que aquel dia te encontré
Por beber del veneno
malevolo de tu amor
yo quede moribundo
y lleno de dolor
respiré de ese humo
amargo de tu adios
y desde que tu te fuiste yo solo...
Tengo, tengo la camisa negra
Porque negra tengo el alma
Yo por ti perdí la calma
Y casi pierdo hasta mi cama
cama c'mon c'mon baby
te digo con disimulo
que tengo la camisa negra
y debajo tengo el difunto
Tengo la camisa negra
ya tu amor no me interesa
lo que ayer me supo a gloria
hoy me sabe a pura
miercoles por la tarde
y tu que no llegas
nisiquiera muestras señas
y yo con la camisa negra
y tus maletas en la puerta
Mal parece...
Por beber del veneno ...
Tengo, tengo la camisa negra... (2 V.)




[La camisa negra acordes][La camisa negra chords]
© LaCuerda.net · notícia legal · privacidade · es · en · pt · contato
DINAMICO