Cifras para Violão e Guitarra » J »Juanes » Me Enamora (Tab)

Me Enamora
Juanes

Letras, cifras e tablaturas para violão, guitarra, piano, ukulele e baixo

  • Em
    Cada blanco de mi mente
    
    Se vuelve color con verte
    
    Y el deseo de tenerte
    G              A
    Es más fuerte, es más fuerte
    Em
    Sólo quiero que me lleves
    
    De tu mano por la senda
    
    Y atravesar el bosque
    G           A
    Que divide nuestras vidas
    C           G           Am            C D
    Hay tantas cosas que me gustan hoy de ti…
    
    
    
  • E |------------------------------------------------|
    B |-----5---5---5---5------------5---5---5---5-----|
    G |---4---7---6---4-----6------4---7---6---4-----6-|
    D |-------------------7------------------------7---|
    A |------------------------------------------------|
    E |------------------------------------------------|
    
    E |------------------------------------------------|
    B |------------------------------------------------|
    G |------------4-7-6--6-4---4----------------------|
    D |-----4-5-7-------------6---5-5-5-4--------------|
    A |---7-------------------------------7------------|
    E |------------------------------------------------|
    
    E |--------------------------------------------|
    B |--------------------------------------------|
    G |---9-7-9---7-------------9-7-9---7----------|
    D |---------9---7-7---------------9---7-7------|(*4)
    A |-----------------10-7------------------10-7-|
    E |--------------------------------------------|
    
  • E |------------------------------------------------|
    B |-----5---5---5---5------------5---5---5---5-----|
    G |---4---7---6---4-----6------4---7---6---4-----6-|
    D |-------------------7------------------------7---|
    A |------------------------------------------------|
    E |------------------------------------------------|
    
    E |------------------------------------------------|
    B |------------------------------------------------|
    G |------------4-7-6--6-4---4----------------------|
    D |-----4-5-7-------------6---5-5-5-4--------------|
    A |---7-------------------------------7------------|
    E |------------------------------------------------|
    
    E |--------------------------------------------|
    B |--------------------------------------------|
    G |---9-7-9---7-------------9-7-9---7----------|
    D |---------9---7-7---------------9---7-7------|(*4)
    A |-----------------10-7------------------10-7-|
    E |--------------------------------------------|
    
  • -------(EADGBE)----------
    
    
    LOS DIVIDI POR LICKS(EL SOLO #2)
    
    SOLO #1 INTRO Y PUENTE
    
    E (---0---0---0---0---------) (---0---0---0---0-------------------)
    B (-0---3---2---0-----0---0-) (-0---3---2---0-----0---------0-3-2-)
    G (-----------------2---0---) (-----------------2-------0-2-------)
    D (-------------------------) (---------------------2-2-----------)
    A (-------------------------) (-----------------------------------)
    E (-------------------------) (-----------------------------------)
    
    E (-----------------------) (---------------------------------)
    B (-2-0---0---0-----------) (---------------------------------)
    G (-2-0-0-0---0-0---0-0---) (-x-x-9-x-7-x-9-------7-----------)
    D (-----2-------2---2-2-4-) (-x-x-x-x-x-x-x-x-9-x-x-x-7-x-5-x-)
    A (---------------------5-) (-x-x-7-x-5-x-7-x-x-x-5-x-x-x-x-x-)
    E (-----------------------) (---------------x-7-x---x-5-x-3-x-) x4 VECES
    
  • E |------------------------------------------------|
    B |-----5---5---5---5------------5---5---5---5-----|
    G |---4---7---6---4-----6------4---7---6---4-----6-|
    D |-------------------7------------------------7---|
    A |------------------------------------------------|
    E |------------------------------------------------|
    
    E |------------------------------------------------|
    B |------------------------------------------------|
    G |------------4-7-6--6-4---4----------------------|
    D |-----4-5-7-------------6---5-5-5-4--------------|
    A |---7-------------------------------7------------|
    E |------------------------------------------------|
    
    
    
    
    
    
    
    
  •                     Em
    
    e--0---0--0----------0--
    B-0---3--2--0-0------0--
    G---------------2-2--0--  (2x)
    D--------------------2--
    A--------------------2--
    E--------------------0--
    
    e-----0-------------------
    B----0-2-3/5---0----------
    G---0---------2---0-------
    D--2-------------2---0-0--
    A-2-----------------2---0-
    E-------------------------
    
    Y aqui lo pueden hacer de dos formas uds veran cual eligen
    
    e----------------
    B-5-3-5---3------     Esta es una forma muy facil y sencilla
    
  • e|----------------------------|----------------------------|
    B|---5---5---5----5-----------|---5---5---5----5-----------|
    G|-4---7---6----4------4--4~--|-4---7---6----4------4--4~--| (GTR1)
    D|-------------------7----5~--|-------------------7----5~--|
    A|----------------------------|----------------------------|
    E|----------------------------|----------------------------|
    ////////////////////////////////////////////////////////////
    G|----------------------------|----------------------------|
    D|----------------------------|----------------------------| (GTR2)
    A|----------------------------|----------------------------|
    E|------------------------3~--|---------------------3--0~--|
    
    e|---------------|------------------------|
    B|---------------|------------------------|
    G|-------4/7-6~--|------------------------|
    D|---5-7---------|-5h7-5---5--5-----------| (GTR1)
    A|-7-------------|-------7------7--7-7-5--|
    E|---------------|------------------------|
    ///////////////////////////////////////////
    G|---------------|-4h6-6---4--4-----------|
    
  • INTRO
    (A)
    
    G |-------------------|
    D |-------------------|
    A |-------------------|
    E |---3---3-0--5---3--|
    
    
    (B)
    
    G |-----------------|
    D |-----------------|
    A |--7-5-7----5-----|
    E |---------7---5-3-|
    
    
    (C)
    
    G |------------------|
    D |-------------/14--|
    A |--7-5-7-----------|
    E |---------3------0-|
    
    
    (D)
    
    G |----------------|---5--------5-----|---4--------4-----|-----------------|
    D |----------------|-----2-5------2-5-|-----5--------5---|-----------------|
    A |-7-5-7----5---5-|-3--------3-------|-2-----5--2-----5-|-------7-------7-|
    E |--------3---3---|------------------|------------------|--5--8----5--8---|
    
    
    G |------------------|
    D |---5---5----------|
    A |-3---3---5----/17-|
    E |------------------|
    
    
    (E)
    
    G |------------------|---7--------7-----|---5-------5-------|-----------------|
    D |---5--------5-----|-----4-7------4-7-|-----2-5-----2-----|-----------------|
    A |-----2-5------2-3-|-5--------5-------|-3-------3-----3---|-/10----10---9---|
    E |-3--------3-------|------------------|--
  • Me enamora –Juanes
    
    Cada blanco  de  mi mente,  se vuelve color con verte
    mi mi re,mi  re, mi la sol,  mi mi re ,mi re, mi la sol
    
    Y  el  deseo  de  tenerte, es más fuerte   es más fuerte
    mi mi re,mi re, mi la sol, si si    si si     si mi mi mi
    
    Solo quiero que me lleves, de  tu  mano por la senda,
    mi mi re,mi re,  mi la sol,   mi mi re,mi re, mi la sol
    
    Y  atravesar  el  bosque, que divide nuestras vidas
    mi  mi  re,mi re, mi la sol,si sisisi re* re*re*re*
    
    Hay      tantas       cosas,   que me, gustan  hoy  de   ti
    mi6 fa#6 sol6 sol6 sol6 re6, do6  si la  sol  mi6 re6 re6
    
    Y  me    enamora,    que me hables con tu boca
    do6do6do6do6 sisi, sisi mi6mi6 mi6mi6 mi6mi6
    
    Me enamora, que me eleves  hasta  el cielo
    mi6mi6 re6re6,lala mi6mi6 mi6mi6 mi6mi6
    
    Me enamora, que   de   mi   sea   tu  alma      so ña dora
    re6 re6 re6, do6 do6 si do6 si, do6sido6si   do6 si re6 re6
    
    La    esperanza  de  mis  ojos,
    si si re6 sol6sol6 fa#6 mi6 si,
    
    sin  ti   mi   vida     no  tiene   sen ti do,
    sisi 
  • +
    ¡Colabora con nosotros!
    Envíanos tu versión de esta canción

Letra de Me Enamora
Cada blanco de mi mente
Se vuelve color con verte
Y el deseo de tenerte
Es más fuerte, es más fuerte
Sólo quiero que me lleves
De tu mano por la senda
Y atravesar el bosque
Que divide nuestras vidas
Hay tantas cosas que me gustan hoy de ti…
Me enamora que me hables con tu boca
Me enamora que me eleves hasta el cielo
Me enamora que de mi sea tu alma soñadora
Esperanza de mis ojos
Sin ti mi vida no tiene sentido
Sin ti mi vida es como un remolino
De cenizas que se van oh oh oh oh
Volando con el viento…
Yo no sé si te merezco
Sólo sé que aún deseo
Que le des luz a mi vida
En los días venideros
Léeme muy bien los labios
Te lo digo bien despacio
Por el resto de mis días
Quiero ser tu compañía
Hay tantas cosas que me gustan hoy de ti…
Me enamora que me hables con tu boca
Me enamora que me eleves hasta el cielo
Me enamora que de mi sea tu alma soñadora
Esperanza de mis ojos
Sin ti mi vida no tiene sentido
Sin ti mi vida es como un remolino
De cenizas que se van oh oh oh oh [x2]
Volando con el viento…
Dedicada a Denisse Perez, en Caracas Venezuela...
Aguante Juanes!!!!
y Que viva Colombia sin guerras!!!




[Me Enamora acordes][Me Enamora chords]
© LaCuerda.net · notícia legal · privacidade · es · en · pt · contato
DINAMICO