Cifras para Violão e Guitarra » J »Juanes » Para tu amor (Tab)

Para tu amor
Juanes

Letras, cifras e tablaturas para violão, guitarra, piano, ukulele e baixo

  •    D#* C#* F7b13 Bbm9 C#maj7
    e)--3---1----1----x-----4----
    B)--4---2----2----x-----6----
    G)--3---1----2----5-----5----
    D)--5---3----1----6-----6----
    A)--6---4----1----4-----4----
    E)--3---1----1----6-----4----
    
    
    G#sus9    G#      F7(b13)
    Para tu amor, lo tengo todo
            Bbm9                            D#*
    Desde mi sangre hasta la esencia de mi ser
    G#                   F7(b13)
    Y para tu amor que es mi tesoro,
            Bbm9                      D#*
    tengo mi vida toda entera a tus pies
               C#maj7      D#   C# D#* C#*           G#
    Y tengo también un corazón que se muere por dar amor
                       C#maj7
    
  • G                    Em
    Para tu amor, lo tengo todo
             Am7                            D
    Desde mi sangre hasta la esencia de mi ser
      G                    Em
    Y para tu amor que es mi tesoro,
            Am7                       D
    tengo mi vida toda entera a tus pies
                Am7         D         Am7             G
    Y tengo también un corazón que se muere por dar amor
                       Am7
    Y que no conoce el fin
            D                D7
    Un corazón que late por vos
    
    
    G                  Em
    Para tu amor no hay despedidas
             Am7                       D
    Para tu amor yo solo tengo eternidad
    
  • G#               Fm
    Para tu amor, lo tengo todo
            A#m                            D#
    Desde mi sangre hasta la esencia de mi ser
    G#                   Fm
    Y para tu amor que es mi tesoro,
            A#m                      D#
    tengo mi vida toda entera a tus pies
                A#m        D#         A#m             G#
    Y tengo también un corazón que se muere por dar amor
                       A#m
    Y que no conoce el fin
           D#               D#7
    Un corazón que late por vos
    
    
    G#                  Fm
    Para tu amor no hay despedidas
             A#m                      D#
    Para tu amor yo solo tengo eternidad
    
  • Amaj7               F#m7
    Para tu amor, lo tengo todo
            Bm7                            E7
    Desde mi sangre hasta la esencia de mi ser
    Amaj7                  F#m7
    Y para tu amor que es mi tesoro,
            Bm7                      E7
    tengo mi vida toda entera a tus pies
                D/F#         E                   A
    Y tengo también un corazón que se muere por dar amor
            A7          D/F#
    Y que no conoce el fin
            E                E7
    Un corazón que late por vos
    
    
    Amaj7               F#m7
    Para tu amor no hay despedidas
             Bm7                      E7
    Para tu amor yo solo tengo eternidad
    
  • G#                   Fm
    Para tu amor, lo tengo todo
             A#m7                           D#
    Desde mi sangre hasta la esencia de mi ser
      G#                   Fm
    Y para tu amor que es mi tesoro,
            A#m7                      D#
    Tengo mi vida toda entera a tus pies
                A#m7        D#        A#m7            G#
    Y tengo también un corazón que se muere por dar amor
                       A#m7
    Que no conoce el fin
            D#               D#7
    Un corazón que late por vos
    
    
    G#                 Fm
    Para tu amor no hay despedidas
             A#m7                      D#
    Para tu amor yo solo tengo eternidad
    
  • Asi la toka juanes...
    
    dedicada a ti... xD
    
    Intro
    -------------------1---------------------------
    -------------------1---------------------4-----
    -----5-5-5-----3-2---2-----5-5---5-5-4-3---3---
    -----8-6-6---6-1-1-----1---6-6---6-6-4-5-----5-
    -----6-6---6---3-3-----------4-----6-6-6-------
    -4-------------1-1-------6-----6---------------
    
    Verso
    
    Para tu amooor lo tengo todo...
    
    -------------------1---------------------------
    -------------------1---------------------4-----
    -----5-5-5-----3-2---2-----5-5---5-5-4-3---3---
    -----8-6-6---6-1-1-----1---6-6---6-6-4-5-----5-
    -----6-6---6---3-3-----------4-----6-6-6-------
    -4-------------1-1-------6-----6---------------
    
    Para tu amor que es mi tesoro...
    
    -------------------1----------------------------
    -------------------1------2-4-4-----4-------6---
    -----5-5-5-----3-2---2----1-5-3-----3-------6---
    -----8-6-6---6-1-1-----1--3-6-5---5---5---6---6-
    -----6-6---6---3-3--------1-----6-------8-------
    -4-------------1-1----------4-3-----------------
    
    un 
  • Esta es mi primer trascripción espero que les sirve de algo.
    Se la quiero dedicar a todos mis amigos de la
    voca 1 “Gonzalo Vázquez Vela”,y a una chava muy especial.
    
    CAPO EN EL PRIMER TRASTE
    e-------------------0---------------------------------------
    B--3-3----3-----0-0--0--------------5-5--3--3---------------
    G--0----4--4----2-1-1---------------5-5------2--------------
    D-----------5-----2------2--2---------5--0----0-------------
    A-------5-------3-------3--3--------3-----------------------
    E--3-------------------3--3---------------------------------
    *Para tu amor, lo tengo todo, desde mi sangre hasta
    la esencia de mi ser
    
    **Para tu amor no hay despedidas, para tu amor yo
    solo tengo eternidad
    
    ***Para tu amor, lo tengo todo, lo tengo todo y lo
    que no tengo también
    
    e-------------------0---------------------------------------
    B--3-3----3-----0-0--0---1-1-------5-5--3-------------------
    G--0----4--4----2-1-1----0-0-------5-5----------------------
    D-----------5--------------2-------5
  • 1---------------------------0-----------------------------------
    2--------------------0--1-0-----1-----1-----1-----1-----------3-
    3--2--2-- x---0-----0---0-1-------2-----2-----0-----0-- 5-4-2---
    4--0--0---x---0----0----2-0-----2-----2-----2-----2-----7-5-4---
    5---------x-----------------------------------------------------
    6--3--3---x---3---3---------------------------------------------
    
    este intro se utiliza en la primera estrofa
    lo vamos a dividir en dos partes para poder
    acoplarlo a la estrofa de la cancio
    
    (parte 1)
    
    1----------------------------0
    2--------------------0---1-0--
    3--2--2-- x---0-----0----0-1--
    4--0--0---x---0----0-----2-0--
    5---------x-------------------
    6--3--3---x---3---3-----------
    
    
  • +
    ¡Colabora con nosotros!
    Envíanos tu versión de esta canción
  • Tutorial
    Como tocar "Para Tu Amor" de Juanes - Tutorial Guitarra (Acordes + SOLO)
    HD
    11:35
  • Tutorial
    HD
    Cómo tocar para tu amor de Juanes a la guitarra
    1:31
  • Tutorial
    HD
    Como tocar Para tu amor Juanes En Guitarra Acustica (HD)
    Tutorial
    6:38

Letra de Para tu amor
Para tu amor, lo tengo todo
Desde mi sangre hasta la esencia de mi ser
Y para tu amor que es mi tesoro,
tengo mi vida toda entera a tus pies
Y tengo también un corazón que se muere por dar amor
Y que no conoce el fin
Un corazón que late por vos
Para tu amor no hay despedidas
Para tu amor yo solo tengo eternidad
Y para tu amor que me ilumina,
tengo una luna un arco iris y un clavel
Y tengo también un corazón que se muere por dar amor
Y que no conoce el fin
Un corazón que late por vos
Por eso yo te quiero,.. tanto que no se como explicar
lo que siento yo te quiero,.. porque tu dolor es mi dolor
Y no hay dudas yo te quiero,.. con el alma y con el corazón
te venero hoy y siempre,.. gracias yo te doy a ti mi amor
Por existir
Para tu amor, lo tengo todo
Lo tengo todo y lo que no tengo también,
lo conseguiré para tu amor, Que es mi tesoro
tengo mi vida toda entera a tus pies
Y tengo también un corazón que se muere por dar amor
Y que no conoce el fin
Un corazón que late por vos
Por eso yo te quiero,.. tanto que no se como explicar
lo que siento yo te quiero,.. porque tu dolor es mi dolor
Y no hay dudas yo te quiero,.. con el alma y con el corazón
te venero hoy y siempre,.. gracias yo te doy a ti mi amor




[Para tu amor acordes][Para tu amor chords]
© LaCuerda.net · notícia legal · privacidade · es · en · pt · contato
DINAMICO