Cifras para Violão e Guitarra » P »Pappo » Fiesta Cervezal (Tab)

Fiesta Cervezal
Pappo

Letras, cifras e tablaturas para violão, guitarra, piano, ukulele e baixo

  • A5
    Quiero tomar
    
    un trago de
            D5
    cerveza fresca
            A5
    para mi sed,
         E5    D5
    hace calor
            A5
    en esta fiesta.
    
    
    SOLO CON LA MISMA BASE
    
    
    Quiero tomar
    un trago de
    licor muy fino
    
  •   LA7         X4 DO7         x2 LA7         x2
    1|--------------|--------------|--------------|
    2|--------------|--------------|--------------|
    3|--------------|--------------|--------------|
    4|--------------|--------------|--------------|
    5|--------------|-3h5---5--3-0-|--------------|
    6|-3h5-0-5--3-0-|-----5--------|-3h5-0-5--3-0-|
    
      RE7           DO7           LA7         x2
    1|---------------------------|--------------|
    2|---------------------------|--------------|
    3|---------------------------|--------------|
    4|---------------------------|--------------|
    5|-5h7---7-5----3h5---5--3-0-|--------------|
    6|-----7-----7------5--------|-3h5-0-5--3-0-|
    
    Quiero tomar,
    Un trago de,
    Cerveza fresca,
    Para mi sed,
    
  • Intro: x4 x2 x2 x1 x1 x2 
           x4 x2 x2 x1 x1 x2
    
             
    Quiero tomar,
    
    un trago de,
            
    cerveza fresca,
            
    para mi sed,
            
    hace calor,
            
    en esta fiesta.
    
    Solo: x4 x2 x2 x1 x1 x2
    
             
    Quiero tomar,
    
  •                                                  \
       (4 vueltas)    (2 vueltas)    (2 vueltas)     |
    G|--------------|--------------|--------------|  |
    D|--------------|--------------|--------------|  |
    A|--------------|-3h5-5-5--3-0-|--------------|  |
    E|-3h5-5-5--3-0-|--------------|-3h5-5-5--3-0-|  |
                                                     |Parte
                                    (2 vueltas)      |  A
    G|----------------------------|--------------|   |
    D|----------------------------|--------------|   |
    A|-5h7-7-7--5-3--3h5-5-5--3-0-|--------------|   |
    E|----------------------------|-3h5-5-5--3-0-|   |
                                                     /
    Repite parte A (3 veces mas). Despues:
    
    1:28        (22 veces)
    G|--------------------------------|    h: hammer on (ligado)
    D|--------------------------------|
    A|--------------------10--10--10--|
    E|-3h5-5-5-5-5-5-5-5--8---8---8---|
    
    
    En la version del disco “Pappo y amigos” y en todas las que toco Youlie Ruth
    el bajo toca el 
  • +
    ¡Colabora con nosotros!
    Envíanos tu versión de esta canción

Letra de Fiesta Cervezal
Quiero tomar
un trago de
cerveza fresca
para mi sed,
hace calor
en esta fiesta.
Quiero tomar
un trago de
licor muy fino
con mis amigos,
hace calor
y no he bebido.




[Fiesta Cervezal acordes][Fiesta Cervezal chords]
© LaCuerda.net · notícia legal · privacidade · es · en · pt · contato
DINAMICO