Cifras para Violão e Guitarra » P »Pappo » Rock and roll y fiebre (Tab)

Rock and roll y fiebre
Pappo

Letras, cifras e tablaturas para violão, guitarra, piano, ukulele e baixo

  • e|--6/7-7-7---9/10b---6/7-7-7-------9/10b~-------------------------------
    B|--6/7-7-7-9---------6/7-7-7-------9/10~~--7-7-7------------------------
    G|----------------------------9-7b----------------9-7--------------------
    D|----------------------------------------------------9-7-9-7------------
    A|------------------------------------------------------------9-8-7------
    E|------------------------------------------------------------------10-7-
    
    
    Mantener esta base en las estrofas:
    
    e|-----------------------------------------------------------------------
    B|-----------------------------------------------------------------------
    G|-----------------------------------------------------------------------
    D|--9-9-9--9--9--9------9-9--9--9--9---9-9--9--9--9---9-9--9--9--9-------
    A|--9-9-11-12-11-9------9-11-12-11-9---9-11-12-11-9---9-11-12-11-9-------
    E|--7-7-7--7--7--7------7-7--7--7--7---7-7--7--7--7---7-7--7--7--7-------
    
    
    Ya va a amanecer y escucho rock and roll en la radio
    Apago el motor para escucharlo mejor
    
  •   LA5      MIm5        SI5
    Rock and roll y fiebre
      LA5      MIm5        SI5
    van de la mano los dos
      LA5      MIm5        SI5
    Rock and roll y fiebre
     LA5           MIm5                    SI5         
    van de la mano, van de la mano los dos
    
    ---
    [Volver a la base en SI]
    ---
    
    La gente se acercó y empiezan a marcar el paso,
    la luz se apago va a comenzar la funcion.
    Me marca el reloj que sube la temparatura,
    todo se prepara esta noche rock and roll.
    
    
      LA5      MIm5        SI5
    
  • 1|--6/7-7-7---10b---6/7-7-7-------10br~~-7-7--------------------------------
    2|--6/7-7-7-9-------6/7-7-7-------10br~--7-7--------------------------------
    3|--------------------------9-7b-------------9br-7--------------------------
    4|-------------------------------------------------9-7--7h9-7---------------
    5|------------------------------------------------------------9-8-7---------
    6|------------------------------------------------------------------10-7--5-
    
      Riff Principal
    1|------------------
    2|------------------
    3|------------------
    4|--9-9-9--9--9--9--
    5|--9-9-11-12-11-9--
    6|--7-7-7--7--7--7--
    
    Ya va a amanecer y escucho Rock And Roll en la radio
    Apago el motor para escucharlo mejor
    Mi articulación se presta para el movimiento
    Mi mano en tu cintura empieza a sentir su sudor
    
    
  • Aca va el ultimo tema que sonó seguido del carpo.
    
                          “Ya va a amanecer y…”
           Intro                 9 veces
    G|------------------|------------------------|--------------------|
    D|------------------|------------------------|--------------------|
    A|----2-2----2-2--2-|-2-------(0)2-----------|-2----------2----2--|
    E|------------------|-----4-2--5----4-2--5-5-|-----4-2---5----5---|
    
     “Rock and roll y fiebre…                             Rock and roll y…
    G|------------------------------------------------------------------------
    D|------------------------------------------------------------------------
    A|----4h5-7-----------------------------------------------4h5-7-----------
    E|75---------5-7----7-7-7-7-7-5----4----7----7-7-7-7-7-5---------5-6-7----
    
      …de la mano, van de la mano los…”
    G|------------------------------|
    D|------------------------------|
    A|-----------------------------0|
    E|-7-7-7-7-7-5----5---0---------|
    
     “La gente se acerco, y …”           
  • +
    ¡Colabora con nosotros!
    Envíanos tu versión de esta canción
  • Tutorial
    HD
    Explicado - Como tocar "Rock and roll y fiebre" de Pappo en el bajo tutorial#234
    10:52

Letra de Rock and roll y fiebre
Rock and roll y fiebre
van de la mano los dos
Rock and roll y fiebre
van de la mano, van de la mano los dos
[Volver a la base en SI]
La gente se acercó y empiezan a marcar el paso,
la luz se apago va a comenzar la funcion.
Me marca el reloj que sube la temparatura,
todo se prepara esta noche rock and roll.
Rock and roll y fiebre
van de la mano los dos
Rock and roll y fiebre
van de la mano, van de la mano los dos
Me encuentro lejos en la ciudad,
hay una ruta entre vos y yo,
no tengo paciencia no puedo esperar
Ami mother fucker with a best in the back,
rather stay blow im 44... [Aca no entiendo bien lo que dice el Pappo :P]
PUNTEO (Que proximamente lo agregaré) (Intenten improvisar en la
misma escala del tema,
que no es dificil)
[Volver a la base en SI]
Va a amanecer y escucho rock and roll en la radio,
apago el motor para escucharlo mejor.
Mi articulacion se presta para el movimiento,
mi mano en tu cintura empieza a sentir su sudor.
Rock and Roll y fiebre,
van de la mano los dos.
Rock and Roll y fiebre,
van de la mano los dos,van de la mano los dos.
Rock and Roll y fiebre,
van de la mano los dos.
Rock and Roll y fiebre,
van de la mano los dos,van de la mano los dos.
Bueno, espero que les salga lindo
AGUANTE PAPPO!! :D




[Rock and roll y fiebre acordes][Rock and roll y fiebre chords]
© LaCuerda.net · notícia legal · privacidade · es · en · pt · contato
DINAMICO