Cifras para Violão e Guitarra » P »Pappo » Juntos a la par (Tab)

Juntos a la par
Pappo

Letras, cifras e tablaturas para violão, guitarra, piano, ukulele e baixo

  •                        C
    Le he pedido tanto a dios
                         G
    que al final oyo mi voz
                           Am          D
    por  LA noche A mas tardar
                        G
    llendo juntos a la par
    
    
                          C
    cartas de amor en el hall
                     G
    se secan con el sol
                        Am
    lejos de la gran ciudad
                      D
    ella es mi felicidad
                              G
    nada como ir juntos a la par
    
  •                        DO
    Le he pedido tanto a dios
                         SOL
    que al final oyo mi voz
                       LAm          RE
    por  LA noche A mas tardar
                       SOL   DO   SOL
    llendo juntos a la par
    
    (AQUÍ EN SOL, DO SE TOCA TRES VECES HACIA ABAJO Y EL ULTIMO SOL UNA SOLA VEZ)
    
                         DO
    cartas de amor en el hall
                     SOL
    se secan con el sol
                        LAm
    lejos de la gran ciudad
                      DO
    ella es mi felicidad
                              SOL
    
  •                        C
    Le he pedido tanto a dios
                         G
    que al final oyo mi voz
                           Am          D
    por la noche a mas tardar
                        G  C  G
    yendo juntos a la par
    
    
                          C
    cartas de amor en el hall
                     G
    se secan con el sol
                        Am
    lejos de la gran ciudad
                      D
    ella es mi felicidad
                              G  C  G
    nada como ir juntos a la par
    
  •                      Cadd9
    Le he pedido tanto a dios
                         G
    que al final oyo mi voz
                           Am           Dsus2
    por  LA noche A mas tardar
                        G    Cadd9    G
    llendo juntos a la par
    
    
    
    cartas de amor en el hall
    se secan con el sol
    lejos de la gran ciudad
    ella es mi felicidad
    nada como ir juntos a la par
    
    
    nada como ir juntos a la par
    y caminos desandar
    
  • E|----------7----------------------------------------------
    B|-------8--8--10--8--8------------------------------------
    G|---/9------------7--7--7/9v--7--7/9v--7/9--7/9-----------
    D|------------------------------------------------7--7/9v--
    A|---------------------------------------------------------
    E|---------------------------------------------------------
    
    
    E|-----------------------------10------
    B|-----------------------8/10------10--
    G|-----------------7--9----------------
    D|-----------7--9----------------------
    A|-------10----------------------------
    E|--/10--------------------------------
    
    
    
    E|----------------------------------------------
    B|---------------------8--10--10/12--10--8--10--
    G|---------------7--9---------------------------
    
  • bueno aca les dejo el solo la verdad muy bien sacado el de la
    transcripcion anterior lo saco bastante bien pero en realidad es
    como les voy a mostrar ahora el tema esta en sol por lo q el solo
    generalmente esta en esa tonalidad y en modo mayor(escala mayor)
    bueno aca va es muy facil
    
    solo:
    
    1)-----3-7-5---3s5---------------------------------------
    2)-3h5-------5------3s5s3s5--3s5-3s5---------------------
    3)-----------------------------------2s44----------------
    4)-------------------------------------------------------
    5)-------------------------------------------------------
    6)-------------------------------------------------------
    
    
    1)-------------------10------------------------------------
    2)--------------8-b10--v10---------8-b10-8-v10-------------
    3)----------7h9-----------------7h9------------------------
    4)-------7h9-----------------7h9---------------------------
    5)--s7h10--------------------------------------------------
    6)--------------------------------------------------------
  • Muy buen tema del carpo de su último disco.Es de su bajista Yulie Ruth
    
    “…hall…        …el sol…           …ciudad…       …nada como ir juntos a la
    G|---------------------------------------------------------
    D|------------------------------5--------------------------
    A|-3----------3---------------5------------------5---------
    E|----------3--------3-----------------5-------------------
    
    par…”                     “Nada como ir juntos a la…
    G|-------------------------|
    D|-------------------------|
    A|-------2-3--3-2----------|
    E|-3---5----------5-3------|
    
    par…                …desandar…                …perdi… …como ir juntos a la
    G|-------------------------------------------------------------------------
    D|-------------------------------------5----55-----------------------------
    A|-3-------------3----33---------5h7-5-----5---------------3--5----55------
    E|(8)---15h17-15(8)--3------3---------------------5----5-5--------5--------
    
    par…”
    G|--------------------------|
    D|---
  • +
    ¡Colabora con nosotros!
    Envíanos tu versión de esta canción
  • Tutorial
    HD
    Como tocar Juntos a la Par en Guitarra (HD)
    Tutorial Acorde
    3:43
  • Tutorial
    HD
    Como tocar Juntos a la Par de Pappo - Leccion de guitarra para principiantes
    5:53
  • Tutorial
    como tocar juntos a la par pappo guitarra criolla
    3:04
  • Tutorial
    HD
    Explicado - Como tocar "Juntos a la par" de Pappo en el bajo tutorial#351
    10:26

Letra de Juntos a la par
Le he pedido tanto a dios
que al final oyo mi voz
llendo juntos a la par
cartas de amor en el hall
se secan con el sol
lejos de la gran ciudad
ella es mi felicidad
nada como ir juntos a la par
nada como ir juntos a la par
y caminos desandar
el honor no lo perdi
es el heroe que hay en mi
nada como ir juntos a la par
se su nombre, se su edad
y sus gustos en la intimidad
cuando un corazon se entregra
y el mañana nunca llega
que mas puedo hacer
nada como ir juntos a la par
y caminos desandar
el honor no lo perdi
es el heroe que hay en mi
nada como ir juntos a la par
el honor no lo perdi
es el heroe que hay en mi
nada como ir juntos a la par




[Juntos a la par acordes][Juntos a la par chords]
© LaCuerda.net · notícia legal · privacidade · es · en · pt · contato
DINAMICO