Cifras para Violão e Guitarra » Z »Zoe » Nada (Tab)

Nada
Zoe

Letras, cifras e tablaturas para violão, guitarra, piano, ukulele e baixo

  • -------------> d^.^b XD
    
    Intro: Dm-Gm x2
    
    Dm                                  Gm
    Transfusión, mi magia pura para el corazón
     C                                A
    Rimel de miel pa corregir la tristeza
     Dm                                Gm
    Tattoo mental para marcarse la imaginación
     C                                A
    Tragos de luz, para alegrarse la vida
    
    
        Dm     G   C             A
    
    
       Dm                             Gm
    Televisión, para borrarse de la transmisión
       C                            A
    
  • Intro: Cm-Fm x2
    
         ---VERSo---
    
     Cm                                  Fm
    Transfusión, mi magia pura para el corazón
     Bb                               G
    Rimel de miel pa corregir la tristeza
     Cm                                Fm
    Tattoo mental para marcarse la imaginación
     Bb                               G
    Tragos de luz, para alegrarse la vida
    
    
        Cm-Dm-Fm-Bb-G
    
    
       Cm                             Fm
    Televisión, para borrarse de la transmisión
       Bb                           G
    
  • Dm                                  Gm
    Transfusión, de magia pura para el corazón
     C                                Am
    Rimel de miel pa corregir la tristeza
    ***fondo del siguiente verso***
    B------------------------------------------------------------|
    G------9h10--9-----9h10--9---------9h10--9--------9h10--9----|
    
     Dm                                Gm
    Tattoo mental para marcarse la imaginación
     C                                Am
    Tragos de luz, para alegrarse la vida
    
              Dm          Gm      C         Am
    e------------------------------------------------------------|
    B------------------------------------------------------------|
    G------------------------------------------------------------|
    D--------------------------5---------------------------------|
    A-----/7-5-5-7--5---7--5-----3---3b-----0--------------------|
    E------------------------------------------------------------|
    
  • --Nada--
    
    
    Intro: Dm-Gm x2
    Bass   Int                   Vers  D   G     C      A
    G|-------------------------|--|------------------------------|
    D|-----------55-55-55-55-5-|X2|-------55-55-5----------------|
    A|-55-55-55-5--------------|--|55-55-5-------33-33-3-00-00-0-|
    E|-------------------------|--|------------------------------|
    Vers
    Dm                                  Gm
    Transfusión, mi magia pura para el corazón
     C                                A
    Rimel de miel pa corregir la tristeza                  Riff1
    Dm(Riff 1)                    Gm                     e|---------|
    Tattoo mental para marcarse la imaginación           B|-5p6-6-5-|
     C                                A                  G|---------|
    Tragos de luz, para alegrarse la vida
    Solo 1    Dm     G   C             A
    e|-----------------------|
    
  • NADA - ZOÉ
    
    Intro X2
    G|-----------------------------|-----------------------------|
    D|-----------------------------|-----------------------------|
    A|-5-5--5-5-5--5-5-5--5-5-5--5-|-----------------------------|
    E|-----------------------------|-3-3--3-3-3--3-3-3--3-3-3--3-|
    
    Versos/Solo
    G|-----------------------------|-----------------------------|
    D|-----------------------------|-----------------------------|
    A|-5-5--5-5-5--5-5-5--5-5-5--5-|-----------------------------|
    E|-----------------------------|-3-3--3-3-3--3-3-3--3-3-3--3-|
    
    G|-----------------------------|-----------------------------|
    D|-----------------------------|-----------------------------|
    A|-3-3--3-3-3--3-3-3--3-3-3--3-|-----------------------------|
    E|-----------------------------|-5-5--5-5-5--5-5-5--5-5-5--5-|
    
    Pre-Coro
    G|---|---|---|---|---|---|---|
    D|---|---|---|---|---|---|---|
    A|---|---|-3-|---|---|---|-3-|
    E|-3-|-1-|---|-6-|-3-|-1-|---|
    
    Coro
    G|-----------------------------|-----------------------------|
    D|---
  • nada-zoe
    que buena rolita espero la disfruten
    y recuerden luz y fuerza
    
    intro(x2)
    4--------------------------------------------------------------
    3-55-55-55-55-5-----------------55-55-55-55-5------------------
    2-----------------55-55-55-55-5------------------55-55-55-55-5-
    1--------------------------------------------------------------
    
    verso(x3)
    transfusion de magia pura para el corazon rimel de miel
    pa corregir la tristeza tattoo mental para marcarse la imaginacion
    tragos de luz para alegrarse la vida
    4-----------------------------------------------55-55-55-55-5
    3-55-55-55-55-5-----------------33-33-33-33-3----------------
    2----------------55-55-55-55-5-------------------------------
    1------------------------------------------------------------
    
    verso(x1)television para borrarse de la transmision
    revolver sexual para la ruleta rusa
    4-----------------------------------------------55-55-55-55-5
    3-55-55-55-5-------------------33-33-33-33-3-----------------
    2-------------33/55-55-55-5---
  • Bueno pues aqui les dejo otra tablatura de Zoe para la bateria chequenla
    creo que esta bien y chequen mis otras tablaturas.
    
    Para cualquier duda, aclaracion y/o correciones les dejo mi mail
    agreguenme en Facebook xD
    
    jacko_24horas@hotmail.com
    
    Ahi les va la clave:
    
    S:Tarola (snare) - o= Golpe Normal
                       0= Golpe con entorchado abajo.
    
    Nota:No se como se representa el golpe con el entorchado abajo pero se los
    marco con un 0 (cero)
    
    B:Bombo - o= Golpe normal
    
    H:Hi-hats - x= Cerrados
                w= Entreabiertos
                X= Abiertos
                o= golpe y los abres
    
    C:Crash - x= Golpe Normal
              X= Golpe Fuerte ó Acentuado
    
    R:Ride - x= Golpe Normal
             X= Golpe Fuerte ó Acentuado
    
    Zoe - Nada
    
    Intro (0:05)
      |---------------------------------x2--------------------------------|
    S |----o-------o---|----o-------o---|----o-------o---|----o-------o---|
    B |o-o---o-o-o---o-|o-o---o-o-o---o-|o-o---o-o-o---o-|o-o---o-o-o---o-|
      |1 + 2 + 3 + 4 + |1 + 2 + 3 + 4 + |1 + 
  • Intro: Dm-Gm x2
    
    Dm
    Transfusión,
    re-do-fa
                              Gm
    mi magia pura para el corazón
    fa-mi-re-do-si-la-sol5-do-si-sol6
    C                                 A
    Rimel de miel pa corregir la tristeza
    mi-mi-fa-mi   re-mi-fa-sol-fa-mi-re-do
    Dm                                     Gm
    Tattoo mental para marcarse la imaginación
    re-re-do-fa  fa-mi-re-do-si-la-sol5-do-si-sol6
    C                                A
    Tragos de luz, para alegrarse la vida
    mi-mi-fa-mi    re-mi-fa-sol6-fa-mi-re-do
    
       Dm
    Televisión,
    re-re-do-fa
                                Gm
    para borrarse de la transmisión
    fa-mi-re-do-si-la-sol5-do-si-sol6
    
       C                            A
    Revólver sexual, para la ruleta rusa
    mi-mi-mi fa-mi   re-mi-fa-sol6-fa-mi-re-do
    
            Gm
    Y no se tú,
    sib-la-sol-re
       F      C                    A#
    ni qué dirás pero no hay nada mucho qué pensar
    do-si- la-mi re-do#-si-la#la# sila# si la#mi
         Gm             F       C
    La oscuridad   me acecha incrédula
    sib la-sol-re  do si-la
  • +
    ¡Colabora con nosotros!
    Envíanos tu versión de esta canción
  • Tutorial
    como tocar nada de zoe, versos, soyer.3gp
    2:03
  • Tutorial
    Como tocar nada unplugged de zoe en piano
    6:32
  • Tutorial
    como tocar nada de zoe, coro. soyer.3gp
    4:36

Letra de Nada
Transfusión, mi magia pura para el corazón
Rimel de miel pa corregir la tristeza
Tattoo mental para marcarse la imaginación
Tragos de luz, para alegrarse la vida
Televisión, para borrarse de la transmisión
Revólver sexual, para la ruleta rusa
*-Precoro-*
Y no se tú, ni qué dirás pero no hay nada mucho qué pensar
La oscuridad me acecha incrédula
-*-_CORO_-*-
Nada que pueda perder,
Nada que no pueda hacer,
Algo que te alivie
Algo que me cure
Nada que pueda perder,
Nada que no pueda hacer,
Algo que te alivie
Algo que me cure
Transfusión, mi magia pura para el corazón
Rimel de miel pa corregir la tristeza
Televisión, para borrarse de la transmisión
Revólver sexual, para la ruleta rusa
*-Precoro-*
Y no se tú, ni qué dirás pero no hay nada mucho qué pensar
La oscuridad me acecha incrédula
-*-_CORO_-*-
Nada que pueda perder,
Nada que no pueda hacer,
Algo que te alivie
Algo que me cure
Nada que pueda perder,
Nada que no pueda hacer,
Algo que te alivie
Algo que me cure
Gran cancion del Unplugged de Zoe y pues aqui les dejo la version del
Unplugged ojala la disfruten ya saben cualquier cancion que ocupen
mi msn es luisylaschicas@hotmail.com Salu2 al Cetis 27 Baruch te odio
y a los vatos q nos la pasamos en la malla mueranse jejej nsc




[Nada acordes][Nada chords]
© LaCuerda.net · notícia legal · privacidade · es · en · pt · contato
DINAMICO