Cifras para Violão e Guitarra » Z »Zoe » Vía Láctea (Tab)

Vía Láctea
Zoe

Letras, cifras e tablaturas para violão, guitarra, piano, ukulele e baixo

  • e|-----------------------------------------------------||
    B|-----------------------------------------------------||
    G|----------------------------------------------------.||
    D|-------------------------------7-7-5-7--------------.||
    A|--7-7-9-9-10-10-9-9----------------------------------||
    E|--------------------8-8-7-8-------------8-8-7-8------||
    
    
    
    Verso:
    
    Em         C         Am   C
    Llevo tu voz en mi voz
    Em         C         Am   C
    Grabada con aerosol
    Em             C                        Am   C
    Beso fantasma pegado en mi labio inferior
    Em            C      Am   C
    Y el mapa de tu desnudez
    
    
  • e|---------------------------|---------------------------|
    B|---------------------------|---------------------------|
    G|---------77----------------|---99-77-------------------|
    D|----99-77--1010-99-77-10-9-|-77-----1010-99-77-99-10-9-|
    A|-77------------------------|---------------------------|
    E|---------------------------|---------------------------|
       ** ** **** * * ** ** *  *   **** ** * * ** ** **  * *
    
      (0:15-0:27)                    (0:28)
                                  Llevo tu voz en mi voz
      Em   C   Am   C   x2         Em
    
     grabada con aerosol    [0:35-0:39]
    e|---------------------------|---------------------------|
    B|---------------------------|---------------------------|
    G|---------77----------------|---99-77-------------------|
    D|----99-77--1010-99-77-10-9-|-77-----1010-99-77-99-10-9-|
    A|-77------------------------|---------------------------|
    E|---------------------------|---------------------------|
       ** ** **** * * ** ** *  *   **** ** * * ** ** **  * *
    
  • E/--------------------------------8-7-8---------------8-7-8--
    A/---7-7--9-9--10-10--9-9----------------------------------          x2
    D/------------------------------------------7--5-7------------
    
    hay una pequeña distorcion
    
    D/--9-9-10-10-12-12-10-10-9-9-7-7-9-9-10-10-12-12-10-10-9-9-7-7-9-9-10-10
    luego entra la guitarra con el bajeo
    
             Em                          C                 Am               C
    E/------------------------------8-7-8-----------------8-7-8----
    A/---7-7--9-9--10-10--9-9------------------------------------       x2
    D/------------------------------------------7--5-7--------------
    
    Em         C               Am   C
    Llevo tu voz en mi voz,
    Em          C              Am   C
    Grabada con aerosol,
         Em                      C                  Am   C
    Tu beso fantasma pegado en mi labio inferior
    
  • g|-----------------------------------------------------| lo del paren-
    d|-----------------------------------------------------|tesis es antes
    a|--7-7-9-9-10-10-9-9-------12-12-10-12----------------|del precoro
    e|--------------------8-7-8-------------8-7-8---(0-3-0)|
    
    intro
          E      C        A       C
    e|----------------------------------------------------------|
    B|----------------------------------------------------------|
    G|--11111---00000---22222---00000---------------------------|
    D|--22222---22222---22222---22222---------------------------|   X2
    A|--22222---33333---00000---33333---------------------------|
    E|----------------------------------------------------------|
    
    
    (en esta parte va el bajo como en el intro y
    un pequeño acento de la guitarra)
    
    Llevo tu voz en mi voz
    grabada con aerosol
    
  • e-----------------------------------------------------------------
    B-----------------------------------------------------------------
    G------------7-7--------------------9-9-7-7-----------------------
    D----9-9-7-7---10-10-9-9-7-7-9-9-7-7-------10-10-9-9-7-7-10-10-9-9
    A-7-7-------------------------------------------------------------
    E-----------------------------------------------------------------
    
    Intro Acordes
    Em-C-Am-C x2
    Llevo tu voz en mi voz…
    De nuevo el intro P.M.
    e-----------------------------------------------------------------
    B-----------------------------------------------------------------
    G-----9-9-7-7-----------------------------------------------------
    D--7-7-------10-10-9-9-7-7-10-10-9-9------------------------------
    A-----------------------------------------------------------------
    E-----------------------------------------------------------------
    Grabada con aerosol…
    e-------12-12-12-12-12-12-12
    B---------------------------
    
  • --Via Lactea--
    Intro
    Bass:
               E            C        A          C
    G|-----------------------------------------------------|
    D|-----------------------------------------------------|
    A|--7-7-9-9-10-10-9-9/3-3-2-3/12-12-10-12/3-3-2-3------|
    E|-----------------------------------------------------|
        (e-e-f#-f#-g-g-f#-f#-c-c-b-c-a-a-g-a-c-c-b-c)
    
    Si ponen mucha atención y escuchan, antes de empezar con A
    una guitarra toca:
     Guit 1
    D|-----------------------------------------------------|
    A|--10-10-10-10-10-10-10---10-10-10-10-10-10-10--------|
    E|-----------------------------------------------------|
     Guit 2         (1)               (2)
    e|---------------------------|---------------------------|
    B|---------------------------|---------------------------|
    G|---------77----------------|---99-77-------------------|
    
  • e-----------------------------------------------------------------------|
    B-----------------------------------------------------------------------|
    G-99-------------------------------------99-----------------------------|
    D----99------1212-1010-99-------------------1212-1010-99------1010-99---|
    A-------1010--------------1212-1010-1212-----------------1212-----------|
    E-----------------------------------------------------------------------|
    
    LUEGO CON ACORDES Em C Am C x2
    
    VERSO:
    (EN PALM MUTE)
    e-------------------------------------|
    B-------------------------------------|
    G------99-----------------------------|
    D---------1212-1010-99------1010-99---|
    A-1212-----------------1212-----------|
    E-------------------------------------|
    
    e-12-12-121212121212-12---|
    B-------------------------|
    
  • #---------NOTA---------#
     Este archivo es trabajo propio del autor y representa una interpretacion
     de la cancion. Puede ser usado unicamente para estudio privado, referencia
     o investigacion.
    #----------------------#
    
    Comentario: "Me tomo unas 3 horas sacarla, mas bien en aprendermela,
    hay algunos cambios muy pequeños en el riff principal en la penultima
    estrofa del primer verso, al final del segundo verso y despues
    del segundo coro".
    #-------#
    
       "Via Lactea" por Zoé
       Tab para Bajo por Adrian Castañeda adrixdas@hotmail.com
       (c) Zoé
    
    #-------#
    
    Afinacion Standar [1G, 2D, 3A, 4E]
    
    #-------#
    
    
    
    [Intro]
    |G|------------------------------------------------------------|
    |D|----------------------------------7-7-5-7-------------------|
    |A|7-7-9-9-10-10-9-9/---------------/--------/7----------------| x3
    |E|------------------8-8-7-8---8-8-8-----------8-8-7-8---8-8-8-|
    
    |G|--------------------------------------5---------------------| Observa
    |D|----------------------------------7-7---7-
  • Esta cancion se la decico a mi novia Jessica y a mi cuate Roberto
    algun comentario o sugerencia mi correo es jacko_24horas@hotmail.com
    Ahi les va la clave
    
    S:tarola (snare) - o=golpe normal
    B:bombo - o=golpe normal
    
    H:hi-hats - x=cerrados
                X=abiertos
                o=golpe y los abres
    
    C:crash - x= golpe debil
              X= golpe fuerte
    
     Intro/Verso (0:00)
     |---------------x3----------------|
     |-------x8-------|                |---------------x3----------------|
    H|x-x-x-x-x-x-x-x-|o-x-x-x-x-x-x-x-|x-x-x-x-x-x-x-x-|x-x-x-x-x-x-x-x-|
    S|----o-------o---|----o-------o---|----o-------o---|----o-------o---|
    B|o-------o-o-----|o-------o-o-----|o-------o-o-----|o-------o-o-----|
     |1 + 2 + 3 + 4 + |1 + 2 + 3 + 4 + |1 + 2 + 3 + 4 + |1 + 2 + 3 + 4 + |
    
    Pre-Coro (0:52)   |---------------x3----------------|
    C|----------------|----------------|----------------|----------------|
    H|x-x-x-x-x-x-x-x-|X-X-X-X-X-X-X-X-|X-X-X-X-X-X-X-X-|X-X-X-X-X-X-X-X-|
    S|----o-o-----o---|----o-o-----o---|----o-o-
  • +
    ¡Colabora con nosotros!
    Envíanos tu versión de esta canción
  • Tutorial
    Como tocar: ZOe via lactea
    5:02
  • Tutorial
    HD
    Como Tocar Vía Láctea - Zoé [Tutorial Guitarra]
    7:12

Letra de Vía Láctea
Verso:
Llevo tu voz en mi voz
Grabada con aerosol
Beso fantasma pegado en mi labio inferior
Y el mapa de tu desnudez
PreCoro
Llevo el prisma de tus ojos
En mi casco de astronauta
Y la tímida aurora de tus células
Y todas las noches bajo la vía láctea
Parecen eternas sí tú no estás
Todas las noches desde mi ventana
Conjuro tu nombre inmortal
Y a veces llora mi piel
Cuando se baña de anhelo
Se infla mi mente con tantos recuerdos
Que ya no me puedo dormir
Y la alfombra de tus sueños
En el rayo vagabundo
Desmaya y parece que no se apaga
PRECORO
3 veces
Vía Láctea...
Vía Láctea...
Vía Láctea...
Si tú no estás
Dos veces
Y se que te vuelvo a encontrar
Sin dedicatoria
trascripcion por: Carlos Cujia
Colaboracion: Jonathan Mancera
Felix Farfan




[Vía Láctea acordes][Vía Láctea chords]
© LaCuerda.net · notícia legal · privacidade · es · en · pt · contato
DINAMICO