Cifras para Violão e Guitarra » Z »Zoe » No me destruyas (Tab)

No me destruyas
Zoe

Letras, cifras e tablaturas para violão, guitarra, piano, ukulele e baixo

  • Intro: Bm
         D Bm D Bm D Bm F#m A
    
    D        Bm        D         Bm       D          Bm       F#m
    Ya no me destruyas con tus mitomanías no rasques mis alas que
           A
    me duelen
    D         Bm       D      Bm          D         Bm
    Pastillas gigantes recámaras secretas con luces obscenas
    F#m           A
    sáquenme de aquí
    
    
       -D Bm D Bm D Bm F#m A
    
    D            Bm        D            Bm        D          Bm     F#m
    Y es triste aceptarlo pero no vale llorarlo uno siempre recibe
    F#m             A
    lo que viene dando
    
    
  • D        Bm        D         Bm       D          Bm       F#m
    ya no me destruyas con tus mitomanías no rasques mis alas que
           A
    me duelen
    D         Bm       D      Bm          D         Bm
    pastillas gigantes recámaras secretas con luces obscenas
    F#m           A
    sáquenme de aquí
    
    1]-------(3x)----------------------------------------------[
    2]-3-5-3-5-3-5-3-5---3-5-3-5-3-5-5/7-7-7-7-7/8-7-----------[
    3]-----------------4---------------------------------------[
    4]---------------------------------------------------------[
    5]---------------------------------------------------------[
    6]---------------------------------------------------------[
    
    
    D            Bm        D            Bm        D          Bm     F#m
    ya es triste aceptarlo pero no vale llorarlo uno siempre recibe
                    A
    
  • SI copo
    
    intro
    sin capo
    D-Bm-D-Bm-D-Bm-F#m
    con copo 2
    e|-0--0--0--0--0--0--0--0-----|    |-0--0--0--0--0--0---0-0-0-0-1-0-|
    B|-1--3--1--3--1--3--1--3-----|    |-1--3--1--3--1--3-1-------------|
    G|-0--0--0--0--0--0--2--2--0--| x3 |-0--0--0--0--0--0---------------|
    D|-0--0--0--2--2--2--2--2-----|    |-0--0--0--2--2--2---------------|
    A|----------3--3--3--0--0-----|    |----------0--0--0---------------|
    E|----------------------------|    |--------------------------------|
    rasgeo en el intro com copo ab-ar-av-av-av-av-av-av
    
    rasgeo normal
    
    D        Bm        D         Bm       D          Bm       F#m
    ya no me destruyas con tus mitomanías no rasques mis alas que
           A
    me duelen
    
  •    (D Bm)3x F#m A
    1]---------------------------------------------------------[
    2]------------------------------(3x)-----------------------[
    3]-7-9-7-9-7-9-7-9---7-9-7-9-7-9-7-9/11-11-11-11-11/12-11--[
    4]-----------------7---------------------------------------[
    5]---------------------------------------------------------[
    6]---------------------------------------------------------[
    
    D        Bm        D         Bm       D          Bm       F#m
    ya no me destruyas con tus mitomanías no rasques mis alas que
           A
    me duelen
    D         Bm       D      Bm          D         Bm
    pastillas gigantes recámaras secretas con luces obscenas
    F#m           A
    sáquenme de aquí
    
    solillo.
    
       (D Bm)3x F#m A
    
  • -------------------------------INTRO-----------------------------
    
                            guitarra 1
    
    
    D  Bm  D  Bm  D  Bm  F#m  A (x 2)
    
                            guitarra 2
            (x3)
    1---------------------|---------------------------------------|
    2---------------------|---------------------------------------|
    3--7-9-7-9-7-9--7-9---|-7-9-7-9-7-9--7-9/11-11-11-11-11-12-11-|
    4-------------------7-|---------------------------------------|
    5---------------------|---------------------------------------|
    6---------------------|---------------------------------------|
    
    
    
     -------------------------------VERSO----------------------------
    
    
  • Esta Tab es para los que la pidieron
    se la dedico a una amiga!
    
    Mail para comentarios o dudas o reclamaciones
    sickprophet@gmail.com
    
    
    Intro
    (Les pongo lo q lleva como
    agudo encuentren el ritmo con la cancion)
    
    
    E------------------------
    A------------------------
    D---9--99---9-9-----79-9-  x2 o lo q quieran alargar la rola en su cover
    G----11--11-----11----7--
    
    Esto 2 Veces y entra el Verso
    
    el otro bajeo q encima el intro es simple
    se los dejo por si lo queiren intentar con
    alguna pedalera q grabe poquitas secuencias
    
    E---------------------
    A-0-2222-0-2222-0-2222
    D---------------------
    G---------------------
    
    Verso(haganlo como mas les guste)
    
    E------------          E---------777777
    A--555-7/2222       Ó  A--555-7-5------  x3
    D------------          D---------------
    G------------          G---------------
    
    y Ala Cuarta es esto
    
    E--2222----       E-2222/5555
    A------0000    Ó  A----------
    D----------       D----------
    G----------       G----------
    
    Es lo mismo solo q escuchen el sonido
    
  • Ahora si ahi sta al cien,
    despues de escuchar muchas versiones ahi sta la buena
    saludos
    
    Intro
    
    E------------------------------
    A--222-0-2-222-0-2-222-0-2-222-
    D------------------------------
    G------------------------------
    
    En el solo se hace esto
    
    E-----------------
    A--5555-7-5-22222-  x3
    D-----------------
    G-----------------
    
    E--2222------
    A------0000--
    D------------
    G------------
    
    Verso x5
    
    E-----------------
    A--5555-7-5-22222-  x3
    D-----------------
    G-----------------
    
    E--2222------
    A------0000--
    D------------
    G------------
    
    Coro
    
    E--------------------------------
    A--77777777777/10-99999999999/12-   x4
    D--------------------------------
    G--------------------------------
    
    E----------------2222------
    A--5555-7-5-2222------0000-    x2
    D--------------------------
    G--------------------------
    
    Verso x1
    
    E-----------------
    A--5555-7-5-22222-  x3
    D-----------------
    G-----------------
    
    E--2222------
    A------0000--
    D------------
    G------------
    
    E-----------
    A--5555555--  x3
    D-----------
    G-----
  • +
    ¡Colabora con nosotros!
    Envíanos tu versión de esta canción
  • Tutorial
    Como tocar No me destruyas Zoe en Guitarra Tutorial
    4:02
  • Tutorial
    HD
    Como tocar NO ME DESTRUYAS en guitarra ~ Zoé ⭐️ TAB
    ACORDES
    TUTORIAL ✪
    8:13

Letra de No me destruyas
Ya no me destruyas con tus mitomanías no rasques mis alas que
me duelen
Pastillas gigantes recámaras secretas con luces obscenas
sáquenme de aquí
Y es triste aceptarlo pero no vale llorarlo uno siempre recibe
lo que viene dando
Ya no afiles las navajas, que ya no me haces daño cuando me las clavas
Ya no afiles los colmillos
Ya no me hacen daño cuando me desangras
Ya no me destruyas más, ya no me destruyas más
ya no me destruyas mejor desaparece no rasques mis alas que me duelen
No me destruyas más, no me destruyas más
no necesito más no me destruyas más
ya no afiles las navajas, que ya no me haces daño cuando me las clavas
ya no afiles los colmillos
ya no me hacen daño cuando me los hundes
ya no me destruyas más ya no me destruyas más
-Cuida los árboles y recuerda -Come Frutas y Verduras-




[No me destruyas acordes][No me destruyas chords]
© LaCuerda.net · notícia legal · privacidade · es · en · pt · contato
DINAMICO