Cifras para Violão e Guitarra » Z »Zoe » Poli (Tab)

Poli
Zoe

Letras, cifras e tablaturas para violão, guitarra, piano, ukulele e baixo

  •     D*
    e|--0--
    B|--3--
    G|--2--
    D|--0--
    A|--0--
    E|--2--
    
    
    Intro - Am
    
    Am
    Recuerdo a Poli
                      G
    Era mi chica ideal
           D*
    Una dulce perla blanca mexicana
    Am
    La cual yo amaba
                         G
    
  •          Am
    e|--5-5---------0-0-0-|
    B|---5-5--------1-1-1-|
    G|--------0-0/2-2-2-2-|
    D|--------0-0/2-2-2-2-|
    A|--------------------|
    E|--------------------| x4
    
    
    Am
    Recuerdo a Poli
                      G
    Era mi chica ideal
           D
    Una dulce perla blanca mexicana
    Am
    La cual yo amaba
                         G
    Pero nunca pude tener
           D                           C
    
  •      G7              B7
    
     e----3---------------2-------------------------
     B----3---------------4-------------------------
     G----4---------------2-------------------------
     D----3---------------4-------------------------
     A----5---------------2------------------------
     E----3---------------X-------------------------
    
    
    INTRO: Am
    
    e------5--------------------------------
    B----------------------3---------5------
    
    
    Am
    Recuerdo a Poli
                   G7
    Era mi chica ideal
    
  •   G1
    e|--5~----------------|-------------------------|
    B|-----------3/5-(5)~-|-(5)~--------------------|
    G|--------------------|-------------------------|
    D|--------------------|-------------------------|
    A|--------------------|-------------------------|
    E|--------------------|-------------------------|
      G2
        v   v    ^  v ^     v      v     ^  v  ^
    e|--0---0----0--0-0---|-0------0-----0--0--0----|
    B|--1---1----1--1-1---|-1------1-----1--1--1----|
    G|--2---2----2--2-2---|-2------2-----2--2--2----|
    D|--2---2----2--2-2---|-2------2-----2--2--2----|
    A|--0---0----0--0-0---|-0------0-----0--0--0----|
    E|--------------------|-------------------------|
      G3
    e|--------------------|-------------------------|
    B|--5---5-5---3--5----|---------C(1-1-1-1)~-p0~-|
    G|--------------------|-------------------------|
    D|--------------------|-------------------------|
    
  • Mi primera tab para bajo c:
    Esta canción esta muy divertida para bajo, todo esta correcto,
    en la parte final me parece asi va, pero tiene mas pisadas, enjoy :v
    
    
    
    
    
    Intro
    G--------------------------------------
    D--7-7-7-7-7-7-------------------------
    A--------------7-5---7-7-7-7-7-7-------
    E--------------------------------7-5--- x2
    
    Verso
    G-------------------------------------------
    D-------------------------------------------
    A----7---7---7---7-5h10-9-7-5-7-5---5---5---
    E--5---5---5---5------------------5---5----- x2
    
    Puente
    G-----------------------------------------------
    D-----------------------------------------------
    A----3---3---7---7---3---3-2-2-2-2-2-2-2-2-2----
    E--3---3---7---7---3---3------------------------
    
    Coro
    G--------------------------
    D--------------------------
    A----7---7-5h10-9-7-5-7-5--
    E--5---5------------------- x3
    
    Coro 2
    G--------------------------|
    D--------------------------|
    A----3---3---7---7---3---3-|
    E--3---3---7---7---3---3---|
    
    Intro
    G------------------
  • +
    ¡Colabora con nosotros!
    Envíanos tu versión de esta canción
  • Tutorial
    HD
    Como tocar Poli de Zoe en Guitarra (HD)
    Tutorial
    4:37
  • Tutorial
    HD
    Como tocar "Poli" de Zoé - Tutorial Guitarra (Acordes)
    HD
    7:10
  • Tutorial
    como tocar poli zoe guitarra
    4:02
  • Tutorial
    HD
    Como tocar POLI en guitarra - Zoe [Tutorial Somos Posers]
    6:39

Letra de Poli
Recuerdo a Poli
Era mi chica ideal
Una dulce perla blanca mexicana
La cual yo amaba
Pero nunca pude tener
Ni mostrarle todo lo que le escribí
En el fondo del mar
Satélites
Flotando por el Universo en busca de señal
Señales de vida
En su constelación electro radiograma de amor
Destellos de mil años luz
Esta es la historia de una vieja canción
La de la primera vez
Recuerdo a Poli
Era mi chica ideal
Una dulce perla blanca mexicana
La cual yo amaba
Pero nunca pude tener
Ni mostrarle todo lo que le escribí
En la espalda del sol
Satélites
Flotando por el Universo en busca de señal
Señales de vida
En su constelación mensajes o evidencia de amor
Destellos de mil años luz
Esta es la historia de una vieja canción
La de la primera vez
Love Love Love Love Love Love
Love Love Love Love Love Love
Love Love Love Love Love Love
Love Love Love Love Love Love
Love Love Love Love Love Love Love




[Poli acordes][Poli chords]
© LaCuerda.net · notícia legal · privacidade · es · en · pt · contato
DINAMICO