Cifras para Violão e Guitarra » Z »Zoe » Nunca (Tab)

Nunca
Zoe

Letras, cifras e tablaturas para violão, guitarra, piano, ukulele e baixo

  • Am
    Nunca me digas que no puedo nunca me digas que creer
                                        C             F#
    No ves que ya no tengo miedo no me pongas tus cadenas
    Am                  Em   Am                Em  Am
    Perdóname si no te sigo pero me aburre caminar me construí
              Em
    unas alas de cartón
    
    Am Em G
    
       C                           F#                  B
    Y voy a intentar llegar al sol aunque me muera de calor ohh!
    
    
    Am                            Em     G
    Un vuelo en llamas bautizo lumino reparo los magnetos del amor
    Am                                Em    G                        C
    Mientras mis alas se desintegrarán y vuelva a caer una vez más
              Em C             Em C         Em C                 Em
    
  • Intro. Am Em 3x  C F#
    
    esta es la correccion del intro, ay le buskan una viajadora distorsion,
    =)rkr2enos(=
    
    INTRO
    
    e------------------------------------------------------------|
    B--------10h11p10------10h11p10-------10~--------------------|
    G-9/---------------12------------12--------------------------|
    D------------------------------------------------------------|
    A------------------------------------------------------------|
    E------------------------------------------------------------|
    
    e------------------------------------------------------------|
    B---10h11p10------10h11p10-----------------------------------|
    G------------12-------------9/-------------------------------|
    D------------------------------------------------------------|
    A------------------------------------------------------------|
    E------------------------------------------------------------| x3
    
  •    Am
    E|------|
    B|------|
    G|-0h2-|
    D|-0h2-|
    A|------|
    E|------|
    
    Despues entra este arpegio, se toca dos veces antes de que entre la letra
    
       Am
    E|-------------0-------------------------0-----0-------|
    B|-------0-----------0-------------0-------------------|
    G|---5-----5-----5-----5---5---5-----5-----5-----5---5-|
    D|-----7-----7-----7-----7-------7-----7-----7-----7---|
    A|-0-------------------------0-------------------------|
    E|-----------------------------------------------------|
    
       C
    E|-----------------------------|
    
  • +
    ¡Colabora con nosotros!
    Envíanos tu versión de esta canción
  • Tutorial
    HD
    Como tocar "Nunca" de Zoé versión Unplugged en guitarra (Tutorial facil)
    11:21

Letra de Nunca
Nunca me digas que no puedo nunca me digas que creer
No ves que ya no tengo miedo no me pongas tus cadenas
Perdóname si no te sigo pero me aburre caminar me construí
unas alas de cartón
Y voy a intentar llegar al sol aunque me muera de calor ohh!
Un vuelo en llamas bautizo lumino reparo los magnetos del amor
Mientras mis alas se desintegrarán y vuelva a caer una vez más
En el rincón uh! en el rincón uh! me queme uh! vuelvo a intentar
Perdóname si no te sigo pero me aburre caminar me construí
unas alas de cartón
Y voy a intentar llegar al sol aunque me muera de calor ohh!
Y vuelo en llamas bautizo lumino recargo los magnetos del amor
Mientras mis alas sin más superstición que la que me llevo a abandonar
Un vuelo en llamas bautizo lumino recargo los magnetos del amor
Mientras mis alas se desintegrarán y vuelva a caer una vez más
En el rincón uh! en el rincón uh! me queme uh! vuelvo a intentar
Cualquier cancion mi msn es luisylaschicas@hotmail.com




[Nunca acordes][Nunca chords]
© LaCuerda.net · notícia legal · privacidade · es · en · pt · contato
DINAMICO