Cifras para Violão e Guitarra » Z »Zoe » Peace and love (Tab)

Peace and love
Zoe

Letras, cifras e tablaturas para violão, guitarra, piano, ukulele e baixo

  • INTRO: D,  Em, C  (x3)
           D,  Em, G
    
    e|-----------------------------------------------------------------|
    B|--8-7-8--8-7-8-7-----8-7-8--8--7-----8-7-8--8-7-8-7-----8-7------|
    G|------------------------------------------------------------7--7-|
    D|-----------------------------------------------------------------|
    A|-----------------------------------------------------------------|
    E|-----------------------------------------------------------------|
    
    D              Em  C
    Peace and love
           D                Em  C
    y una carga de metralla
          D            Em  C
    de rodillas al sol
         D                Em  C
    eso ya no me interesa
    Am
    Ni sus guerras ni su dios.
    
  • D              Em-C
     Peace and love
            D               Em-C
     Y una carga de metralla
        D              Em-C
     De rodillas al sol
          D              Em-C
     Eso ya no me interesa
     A
     Ni sus guerras ni su dios
    
    |e|-----------------|-----------------|
    |B|-----------------|-----------------|
    |G|-----------------|-----------------|
    |D|-----------------|-----------------|
    |A|-2-2-2-2-2-2-2-2-|-2-2-2-2-2-2-2-2-|
    |E|-0-0-0-0-0-0-0-0-|-0-0-0-0-0-0-0-0-|
    
    |e|-----------------|-----------------|
    |B|-----------------|-----------------|
    
  • PARA MI AMIGA RAAWR :D TZV...
    
    INTRO:
    G-------------------------------------------------------------|
    D-------------------------------------------------------------|
    A-3h5-53h5-7-3---3h5-53h5-7-3---3h5-53h5-7-3---3h5-53h5-------|
    E-------------------------------------------------------0-3---|
    
    VERSO:
    G-------------------------------------------------------------|
    D-------------------------------------------------------------|
    A-3h5-53h5-7-3---3h5-53h5-------3h5-53h5-7-3---3h5-53h5-------|
    E-------------------------0-3---------------------------0-3---|
    
    PRECORO:
    G--------------------|
    D--------------------|
    A-0000000000000000---|
    E--------------------|
    
    CORO:
    G-----------------------------------------------------------------------|
    D-----------------------------------------------------------------------|x4
    A-2222222222222222------------------------------------------------------|
    E------------------000000000000000000-3333333333333333-0000000000000000-|
    
    DESPUES DE ESO SE TOCA LO MISMO QU
  • +
    ¡Colabora con nosotros!
    Envíanos tu versión de esta canción
  • Tutorial
    HD
    INTRO
    Como tocar PEACE & LOVE en guitarra - Zoe [Tutorial Rockstars]
    1:45

Letra de Peace and love
Peace and love
y una carga de metralla
de rodillas al sol
eso ya no me interesa
Ni sus guerras ni su dios.
Grito ciego
con mi cara de cañon
de maldicion
de radio humano
Plomo
plomo sulfurado en tu aliento
plomo recargado en tu voz
en tu dia,tanta saliva
malva de niña fina
*La 3ra y 4ta vez que se hace lo de arriba, otra guitarra hace esto:
Peace and love
como espuma fermentada
quien te vende dolor
disfrazado de placeres
Grito ciego
con mi cara de cañon
de maldicion
de radio humano
Plomo
plomo sulfurado en tu aliento
plomo recargado en tu voz
en tu dia, tanta saliva
malva de niña fina.
Plomo
plomo sulfurado en tu aliento
plomo recargado en tu voz
en tu dia, tanta saliva
malva de niña fina.
OUTRO:




[Peace and love acordes][Peace and love chords]
© LaCuerda.net · notícia legal · privacidade · es · en · pt · contato
DINAMICO