Cifras para Violão e Guitarra » Z »Zoe » Sombras (Tab)

Sombras
Zoe

Letras, cifras e tablaturas para violão, guitarra, piano, ukulele e baixo

  • C   Am              Em
    dicen  que ya no siente,
    
               C   Am         Em
    que su garganta lagrimas robó,
    
    C    Am             Em
    dicen  que estas ausente,
    
                C      Am            Em
    que andas rondando si por la soledad.
    
    C      Am          Em
    no saltes por la ventana,
    
            C        Am           Em
    no te arrodilles que te devorarán
    
    Am                 F                         C     Am
    desenfundar el corazon y disparar contra las sombras
    
  •    C*      Em7      Am7        G      D7/F#      C
    E ------  E------  E------  E--2---  E-1----  E------
    A --2---  A-1----  A------  A-1----  A------  A--3---
    D -1----  D-2----  D-2----  D------  D------  D-2----
    G ------  G------  G------  G------  G-2----  G------
    B --3---  B--3---  B1-----  B--3---  B--3---  B1-----
    e --4---  e--4---  e--4---  e--4---  e------  e------
      123456   123456   123456   123456   123456   123456
    
    
    INTRO
    
    C* - Am7 - Em7 X4
    
    VERSO 1
    
    C*   Am7              Em7
    dicen  que ya no siente
    
               C*   Am7         Em7
    
  • --SOMBRAS--
    INTRO
         C    Am   Em         C         Am          Em
    e|-----------------||----------------------------------------|
    B|--8-8---8-8--8-8-||-----9--9--9---9-9-9-----8-8-8---8-8-8--|
    G|--9-9---9-9--9-9-||-----9--9--9---9-9-9-----9-9-9---9-9-9--|
    D|-10-10--7-7--9-9-||-10-10-10-10-7-7-7-7-7-9-9-9-9-9-9-9-9--|
    A|-----------------||----------------------------------------|
    E|-----------------||----------------------------------------|
    
    Int- Tec
    e|-12------12--12-13-12------12--12-10--|--|
    B|---13--13--13--------13--13--13-------|X2|
    G|-----12----------------12-------------|--|
    D|--------------------------------------|--|
    
    C   Am              Em
    dicen  que ya no siente,
           C   Am         Em
    que su garganta lagrimas robó,
    
  • --SOMBRAS—-
    
    INTRO – FIN
         C      A        E
    G|-------------------------|
    D|-------------------------|
    A|-3-3-3-3-0-0-0-0---------|
    E|-----------------0-0-0-0-|
    
    VERSO
     C           A         E
    G|---------------------------------|
    D|---------------------------------|
    A|-3-3-5-3-3-0-0-2-0-0-------------|
    E|---------------------0-0-2-0-0-2-|
    
    CORO
          A       F          C       E         C        A
    G|----------------------------------------------------------|
    D|----------------------------------------------------------|
    A|-0-0-0-0-0---------3-3-3-3-3---------3-3-3-3-3------------|
    E|----------1-1-1-1-1---------0-0-0-0-0----------0-0-0-0-0--|
    
    Bridge
            Am                     D/F#             G                Em
    G|--------9------|--|-------9------|--|---------9------|--|-------9------
    D|7-7-9-10-10-9-7|X2|---9-10-10-9-7|X2|-----9-10-10-9-7|X2|---9-10-10-9-7
    A|---------------|--|9-9-----------|--|10-10-----------|--|7-7-----------
    E|---------------|--|--------------|--|---------
  • +
    ¡Colabora con nosotros!
    Envíanos tu versión de esta canción

Letra de Sombras
dicen que ya no siente,
que su garganta lagrimas robó,
dicen que estas ausente,
que andas rondando si por la soledad.
no saltes por la ventana,
no te arrodilles que te devorarán
desenfundar el corazon y disparar contra las sombras
tapando el sol, sobras tapandote,
son tan solo sombras sin pena ni gloria
son una ilusion, una proyección de ti.
lamento tus pensamientos,
que no me creas nada ya,
desenfundar el corazon disparar contra las sombras
tapando el sol,
sombras tapandote
RIMEL DE MIEL PARA CURAR LA TRIZTEZA :p
SALUDOS A ZAC. Y TORREÓN.




[Sombras acordes][Sombras chords]
© LaCuerda.net · notícia legal · privacidade · es · en · pt · contato
DINAMICO